  0
SECTION
  2
HEADER
  9
$ACADVER
  1
AC1015
  9
$ACADMAINTVER
 70
    13
  9
$DWGCODEPAGE
  3
ANSI_932
  9
$INSBASE
 10
0.0
 20
0.0
 30
0.0
  9
$EXTMIN
 10
-197.5
 20
-136.7000000165174
 30
0.0
  9
$EXTMAX
 10
205.5
 20
144.0
 30
0.0
  9
$LIMMIN
 10
-197.5
 20
-136.0
  9
$LIMMAX
 10
206.1704744507369
 20
144.5764974487246
  9
$ORTHOMODE
 70
     0
  9
$REGENMODE
 70
     1
  9
$FILLMODE
 70
     1
  9
$QTEXTMODE
 70
     0
  9
$MIRRTEXT
 70
     1
  9
$LTSCALE
 40
6.716667
  9
$ATTMODE
 70
     1
  9
$TEXTSIZE
 40
0.2
  9
$TRACEWID
 40
0.05
  9
$TEXTSTYLE
  7
STANDARD
  9
$CLAYER
  8
002
  9
$CELTYPE
  6
CONTINUOUS
  9
$CECOLOR
 62
   256
  9
$CELTSCALE
 40
1.0
  9
$DISPSILH
 70
     0
  9
$DIMSCALE
 40
1.0
  9
$DIMASZ
 40
0.18
  9
$DIMEXO
 40
0.0625
  9
$DIMDLI
 40
0.38
  9
$DIMRND
 40
0.0
  9
$DIMDLE
 40
0.0
  9
$DIMEXE
 40
0.18
  9
$DIMTP
 40
0.0
  9
$DIMTM
 40
0.0
  9
$DIMTXT
 40
0.18
  9
$DIMCEN
 40
0.09
  9
$DIMTSZ
 40
0.0
  9
$DIMTOL
 70
     0
  9
$DIMLIM
 70
     0
  9
$DIMTIH
 70
     1
  9
$DIMTOH
 70
     1
  9
$DIMSE1
 70
     0
  9
$DIMSE2
 70
     0
  9
$DIMTAD
 70
     0
  9
$DIMZIN
 70
     0
  9
$DIMBLK
  1

  9
$DIMASO
 70
     1
  9
$DIMSHO
 70
     1
  9
$DIMPOST
  1

  9
$DIMAPOST
  1

  9
$DIMALT
 70
     0
  9
$DIMALTD
 70
     2
  9
$DIMALTF
 40
25.4
  9
$DIMLFAC
 40
1.0
  9
$DIMTOFL
 70
     0
  9
$DIMTVP
 40
0.0
  9
$DIMTIX
 70
     0
  9
$DIMSOXD
 70
     0
  9
$DIMSAH
 70
     0
  9
$DIMBLK1
  1

  9
$DIMBLK2
  1

  9
$DIMSTYLE
  2
Standard
  9
$DIMCLRD
 70
     0
  9
$DIMCLRE
 70
     0
  9
$DIMCLRT
 70
     0
  9
$DIMTFAC
 40
1.0
  9
$DIMGAP
 40
0.09
  9
$DIMJUST
 70
     0
  9
$DIMSD1
 70
     0
  9
$DIMSD2
 70
     0
  9
$DIMTOLJ
 70
     1
  9
$DIMTZIN
 70
     0
  9
$DIMALTZ
 70
     0
  9
$DIMALTTZ
 70
     0
  9
$DIMUPT
 70
     0
  9
$DIMDEC
 70
     4
  9
$DIMTDEC
 70
     4
  9
$DIMALTU
 70
     2
  9
$DIMALTTD
 70
     2
  9
$DIMTXSTY
  7
STANDARD
  9
$DIMAUNIT
 70
     0
  9
$DIMADEC
 70
     0
  9
$DIMALTRND
 40
0.0
  9
$DIMAZIN
 70
     0
  9
$DIMDSEP
 70
    46
  9
$DIMATFIT
 70
     3
  9
$DIMFRAC
 70
     0
  9
$DIMLDRBLK
  1

  9
$DIMLUNIT
 70
     2
  9
$DIMLWD
 70
    -2
  9
$DIMLWE
 70
    -2
  9
$DIMTMOVE
 70
     0
  9
$LUNITS
 70
     2
  9
$LUPREC
 70
     4
  9
$SKETCHINC
 40
0.1
  9
$FILLETRAD
 40
0.0
  9
$AUNITS
 70
     0
  9
$AUPREC
 70
     0
  9
$MENU
  1
acad
  9
$ELEVATION
 40
0.0
  9
$PELEVATION
 40
0.0
  9
$THICKNESS
 40
0.0
  9
$LIMCHECK
 70
     0
  9
$CHAMFERA
 40
0.0
  9
$CHAMFERB
 40
0.0
  9
$CHAMFERC
 40
0.0
  9
$CHAMFERD
 40
0.0
  9
$SKPOLY
 70
     0
  9
$TDCREATE
 40
2313900.647987048
  9
$TDUCREATE
 40
2313900.272987048
  9
$TDUPDATE
 40
2455959.447065960
  9
$TDUUPDATE
 40
2455959.072065960
  9
$TDINDWG
 40
0.0185977894
  9
$TDUSRTIMER
 40
0.0185976505
  9
$USRTIMER
 70
     1
  9
$ANGBASE
 50
0.0
  9
$ANGDIR
 70
     0
  9
$PDMODE
 70
     0
  9
$PDSIZE
 40
0.0
  9
$PLINEWID
 40
0.0
  9
$SPLFRAME
 70
     0
  9
$SPLINETYPE
 70
     6
  9
$SPLINESEGS
 70
     8
  9
$HANDSEED
  5
528
  9
$SURFTAB1
 70
     6
  9
$SURFTAB2
 70
     6
  9
$SURFTYPE
 70
     6
  9
$SURFU
 70
     6
  9
$SURFV
 70
     6
  9
$UCSBASE
  2

  9
$UCSNAME
  2

  9
$UCSORG
 10
0.0
 20
0.0
 30
0.0
  9
$UCSXDIR
 10
1.0
 20
0.0
 30
0.0
  9
$UCSYDIR
 10
0.0
 20
1.0
 30
0.0
  9
$UCSORTHOREF
  2

  9
$UCSORTHOVIEW
 70
     0
  9
$UCSORGTOP
 10
0.0
 20
0.0
 30
0.0
  9
$UCSORGBOTTOM
 10
0.0
 20
0.0
 30
0.0
  9
$UCSORGLEFT
 10
0.0
 20
0.0
 30
0.0
  9
$UCSORGRIGHT
 10
0.0
 20
0.0
 30
0.0
  9
$UCSORGFRONT
 10
0.0
 20
0.0
 30
0.0
  9
$UCSORGBACK
 10
0.0
 20
0.0
 30
0.0
  9
$PUCSBASE
  2

  9
$PUCSNAME
  2

  9
$PUCSORG
 10
0.0
 20
0.0
 30
0.0
  9
$PUCSXDIR
 10
1.0
 20
0.0
 30
0.0
  9
$PUCSYDIR
 10
0.0
 20
1.0
 30
0.0
  9
$PUCSORTHOREF
  2

  9
$PUCSORTHOVIEW
 70
     0
  9
$PUCSORGTOP
 10
0.0
 20
0.0
 30
0.0
  9
$PUCSORGBOTTOM
 10
0.0
 20
0.0
 30
0.0
  9
$PUCSORGLEFT
 10
0.0
 20
0.0
 30
0.0
  9
$PUCSORGRIGHT
 10
0.0
 20
0.0
 30
0.0
  9
$PUCSORGFRONT
 10
0.0
 20
0.0
 30
0.0
  9
$PUCSORGBACK
 10
0.0
 20
0.0
 30
0.0
  9
$USERI1
 70
     0
  9
$USERI2
 70
     0
  9
$USERI3
 70
     0
  9
$USERI4
 70
     0
  9
$USERI5
 70
     0
  9
$USERR1
 40
0.0
  9
$USERR2
 40
0.0
  9
$USERR3
 40
0.0
  9
$USERR4
 40
0.0
  9
$USERR5
 40
0.0
  9
$WORLDVIEW
 70
     1
  9
$SHADEDGE
 70
     3
  9
$SHADEDIF
 70
    70
  9
$TILEMODE
 70
     1
  9
$MAXACTVP
 70
    64
  9
$PINSBASE
 10
0.0
 20
0.0
 30
0.0
  9
$PLIMCHECK
 70
     0
  9
$PEXTMIN
 10
1.000000000000000E+20
 20
1.000000000000000E+20
 30
1.000000000000000E+20
  9
$PEXTMAX
 10
-1.000000000000000E+20
 20
-1.000000000000000E+20
 30
-1.000000000000000E+20
  9
$PLIMMIN
 10
0.0
 20
0.0
  9
$PLIMMAX
 10
12.0
 20
9.0
  9
$UNITMODE
 70
     0
  9
$VISRETAIN
 70
     1
  9
$PLINEGEN
 70
     0
  9
$PSLTSCALE
 70
     1
  9
$TREEDEPTH
 70
  3020
  9
$CMLSTYLE
  2
Standard
  9
$CMLJUST
 70
     0
  9
$CMLSCALE
 40
1.0
  9
$PROXYGRAPHICS
 70
     1
  9
$MEASUREMENT
 70
     0
  9
$CELWEIGHT
370
    -1
  9
$ENDCAPS
280
     0
  9
$JOINSTYLE
280
     0
  9
$LWDISPLAY
290
     0
  9
$INSUNITS
 70
     0
  9
$HYPERLINKBASE
  1

  9
$STYLESHEET
  1

  9
$XEDIT
290
     1
  9
$CEPSNTYPE
380
     0
  9
$PSTYLEMODE
290
     1
  9
$FINGERPRINTGUID
  2
{F04A8B4E-CA0A-4FC9-98D8-E43BBF424013}
  9
$VERSIONGUID
  2
{17FDB5AF-2F80-44BE-B4FE-18EB1EFFEE5F}
  9
$EXTNAMES
290
     1
  9
$PSVPSCALE
 40
0.0
  9
$OLESTARTUP
290
     0
  0
ENDSEC
  0
SECTION
  2
CLASSES
  0
CLASS
  1
ACDBDICTIONARYWDFLT
  2
AcDbDictionaryWithDefault
  3
AutoCAD 2000
 90
        0
280
     0
281
     0
  0
CLASS
  1
ACDBPLACEHOLDER
  2
AcDbPlaceHolder
  3
AutoCAD 2000
 90
        0
280
     0
281
     0
  0
CLASS
  1
LAYOUT
  2
AcDbLayout
  3
AutoCAD 2000
 90
        0
280
     0
281
     0
  0
CLASS
  1
DICTIONARYVAR
  2
AcDbDictionaryVar
  3
AutoCAD 2000
 90
        0
280
     0
281
     0
  0
ENDSEC
  0
SECTION
  2
TABLES
  0
TABLE
  2
VPORT
  5
8
330
0
100
AcDbSymbolTable
 70
     2
  0
VPORT
  5
527
330
8
100
AcDbSymbolTableRecord
100
AcDbViewportTableRecord
  2
*Active
 70
     0
 10
0.0
 20
0.0
 11
1.0
 21
1.0
 12
4.329088402522927
 22
3.933965900786404
 13
0.0
 23
0.0
 14
1.0
 24
1.0
 15
0.0
 25
0.0
 16
0.0
 26
0.0
 36
1.0
 17
0.0
 27
0.0
 37
0.0
 40
284.4936379600881
 41
2.457142857142857
 42
50.0
 43
0.0
 44
0.0
 50
0.0
 51
0.0
 71
     0
 72
   100
 73
     1
 74
     1
 75
     0
 76
     0
 77
     0
 78
     0
281
     0
 65
     1
110
0.0
120
0.0
130
0.0
111
1.0
121
0.0
131
0.0
112
0.0
122
1.0
132
0.0
 79
     0
146
0.0
  0
ENDTAB
  0
TABLE
  2
LTYPE
  5
5
330
0
100
AcDbSymbolTable
 70
    25
  0
LTYPE
  5
13
330
5
100
AcDbSymbolTableRecord
100
AcDbLinetypeTableRecord
  2
ByBlock
 70
     0
  3

 72
    65
 73
     0
 40
0.0
  0
LTYPE
  5
14
330
5
100
AcDbSymbolTableRecord
100
AcDbLinetypeTableRecord
  2
ByLayer
 70
     0
  3

 72
    65
 73
     0
 40
0.0
  0
LTYPE
  5
15
330
5
100
AcDbSymbolTableRecord
100
AcDbLinetypeTableRecord
  2
CONTINUOUS
 70
     0
  3
Solid line
 72
    65
 73
     0
 40
0.0
  0
LTYPE
  5
22
330
5
100
AcDbSymbolTableRecord
100
AcDbLinetypeTableRecord
  2
DASHED
 70
     0
  3
DASHED
 72
    65
 73
     2
 40
0.75
 49
0.5
 74
     0
 49
-0.25
 74
     0
  0
LTYPE
  5
23
330
5
100
AcDbSymbolTableRecord
100
AcDbLinetypeTableRecord
  2
HIDDEN
 70
     0
  3
HIDDEN
 72
    65
 73
     2
 40
0.375
 49
0.25
 74
     0
 49
-0.125
 74
     0
  0
LTYPE
  5
24
330
5
100
AcDbSymbolTableRecord
100
AcDbLinetypeTableRecord
  2
CENTER
 70
     0
  3
CENTER
 72
    65
 73
     4
 40
2.0
 49
1.25
 74
     0
 49
-0.25
 74
     0
 49
0.25
 74
     0
 49
-0.25
 74
     0
  0
LTYPE
  5
25
330
5
100
AcDbSymbolTableRecord
100
AcDbLinetypeTableRecord
  2
PHANTOM
 70
     0
  3
PHANTOM
 72
    65
 73
     6
 40
2.5
 49
1.25
 74
     0
 49
-0.25
 74
     0
 49
0.25
 74
     0
 49
-0.25
 74
     0
 49
0.25
 74
     0
 49
-0.25
 74
     0
  0
LTYPE
  5
26
330
5
100
AcDbSymbolTableRecord
100
AcDbLinetypeTableRecord
  2
BORDER
 70
     0
  3
BORDER
 72
    65
 73
     6
 40
1.75
 49
0.5
 74
     0
 49
-0.25
 74
     0
 49
0.5
 74
     0
 49
-0.25
 74
     0
 49
0.0
 74
     0
 49
-0.25
 74
     0
  0
LTYPE
  5
27
330
5
100
AcDbSymbolTableRecord
100
AcDbLinetypeTableRecord
  2
BORDER2
 70
     0
  3
BORDER2
 72
    65
 73
     6
 40
0.875
 49
0.25
 74
     0
 49
-0.125
 74
     0
 49
0.25
 74
     0
 49
-0.125
 74
     0
 49
0.0
 74
     0
 49
-0.125
 74
     0
  0
LTYPE
  5
28
330
5
100
AcDbSymbolTableRecord
100
AcDbLinetypeTableRecord
  2
BORDERX2
 70
     0
  3
BORDERX2
 72
    65
 73
     6
 40
3.5
 49
1.0
 74
     0
 49
-0.5
 74
     0
 49
1.0
 74
     0
 49
-0.5
 74
     0
 49
0.0
 74
     0
 49
-0.5
 74
     0
  0
LTYPE
  5
29
330
5
100
AcDbSymbolTableRecord
100
AcDbLinetypeTableRecord
  2
CENTER2
 70
     0
  3
CENTER2
 72
    65
 73
     4
 40
1.125
 49
0.75
 74
     0
 49
-0.125
 74
     0
 49
0.125
 74
     0
 49
-0.125
 74
     0
  0
LTYPE
  5
2A
330
5
100
AcDbSymbolTableRecord
100
AcDbLinetypeTableRecord
  2
CENTERX2
 70
     0
  3
CENTERX2
 72
    65
 73
     4
 40
4.0
 49
2.5
 74
     0
 49
-0.5
 74
     0
 49
0.5
 74
     0
 49
-0.5
 74
     0
  0
LTYPE
  5
2B
330
5
100
AcDbSymbolTableRecord
100
AcDbLinetypeTableRecord
  2
DASHDOT
 70
     0
  3
DASHDOT
 72
    65
 73
     4
 40
1.0
 49
0.5
 74
     0
 49
-0.25
 74
     0
 49
0.0
 74
     0
 49
-0.25
 74
     0
  0
LTYPE
  5
2C
330
5
100
AcDbSymbolTableRecord
100
AcDbLinetypeTableRecord
  2
DASHDOT2
 70
     0
  3
DASHDOT2
 72
    65
 73
     4
 40
0.5
 49
0.25
 74
     0
 49
-0.125
 74
     0
 49
0.0
 74
     0
 49
-0.125
 74
     0
  0
LTYPE
  5
2D
330
5
100
AcDbSymbolTableRecord
100
AcDbLinetypeTableRecord
  2
DASHDOTX2
 70
     0
  3
DASHDOTX2
 72
    65
 73
     4
 40
2.0
 49
1.0
 74
     0
 49
-0.5
 74
     0
 49
0.0
 74
     0
 49
-0.5
 74
     0
  0
LTYPE
  5
2E
330
5
100
AcDbSymbolTableRecord
100
AcDbLinetypeTableRecord
  2
DASHED2
 70
     0
  3
DASHED2
 72
    65
 73
     2
 40
0.375
 49
0.25
 74
     0
 49
-0.125
 74
     0
  0
LTYPE
  5
2F
330
5
100
AcDbSymbolTableRecord
100
AcDbLinetypeTableRecord
  2
DASHEDX2
 70
     0
  3
DASHEDX2
 72
    65
 73
     2
 40
1.5
 49
1.0
 74
     0
 49
-0.5
 74
     0
  0
LTYPE
  5
30
330
5
100
AcDbSymbolTableRecord
100
AcDbLinetypeTableRecord
  2
DIVIDE
 70
     0
  3
DIVIDE
 72
    65
 73
     6
 40
1.25
 49
0.5
 74
     0
 49
-0.25
 74
     0
 49
0.0
 74
     0
 49
-0.25
 74
     0
 49
0.0
 74
     0
 49
-0.25
 74
     0
  0
LTYPE
  5
31
330
5
100
AcDbSymbolTableRecord
100
AcDbLinetypeTableRecord
  2
DIVIDE2
 70
     0
  3
DIVIDE2
 72
    65
 73
     6
 40
0.625
 49
0.25
 74
     0
 49
-0.125
 74
     0
 49
0.0
 74
     0
 49
-0.125
 74
     0
 49
0.0
 74
     0
 49
-0.125
 74
     0
  0
LTYPE
  5
32
330
5
100
AcDbSymbolTableRecord
100
AcDbLinetypeTableRecord
  2
DIVIDEX2
 70
     0
  3
DIVIDEX2
 72
    65
 73
     6
 40
2.5
 49
1.0
 74
     0
 49
-0.5
 74
     0
 49
0.0
 74
     0
 49
-0.5
 74
     0
 49
0.0
 74
     0
 49
-0.5
 74
     0
  0
LTYPE
  5
33
330
5
100
AcDbSymbolTableRecord
100
AcDbLinetypeTableRecord
  2
DOT
 70
     0
  3
DOT
 72
    65
 73
     2
 40
0.25
 49
0.0
 74
     0
 49
-0.25
 74
     0
  0
LTYPE
  5
34
330
5
100
AcDbSymbolTableRecord
100
AcDbLinetypeTableRecord
  2
DOT2
 70
     0
  3
DOT2
 72
    65
 73
     2
 40
0.125
 49
0.0
 74
     0
 49
-0.125
 74
     0
  0
LTYPE
  5
35
330
5
100
AcDbSymbolTableRecord
100
AcDbLinetypeTableRecord
  2
DOTX2
 70
     0
  3
DOTX2
 72
    65
 73
     2
 40
0.5
 49
0.0
 74
     0
 49
-0.5
 74
     0
  0
LTYPE
  5
36
330
5
100
AcDbSymbolTableRecord
100
AcDbLinetypeTableRecord
  2
HIDDEN2
 70
     0
  3
HIDDEN2
 72
    65
 73
     2
 40
0.1875
 49
0.125
 74
     0
 49
-0.0625
 74
     0
  0
LTYPE
  5
37
330
5
100
AcDbSymbolTableRecord
100
AcDbLinetypeTableRecord
  2
HIDDENX2
 70
     0
  3
HIDDENX2
 72
    65
 73
     2
 40
0.75
 49
0.5
 74
     0
 49
-0.25
 74
     0
  0
LTYPE
  5
38
330
5
100
AcDbSymbolTableRecord
100
AcDbLinetypeTableRecord
  2
PHANTOM2
 70
     0
  3
PHANTOM2
 72
    65
 73
     6
 40
1.25
 49
0.625
 74
     0
 49
-0.125
 74
     0
 49
0.125
 74
     0
 49
-0.125
 74
     0
 49
0.125
 74
     0
 49
-0.125
 74
     0
  0
LTYPE
  5
39
330
5
100
AcDbSymbolTableRecord
100
AcDbLinetypeTableRecord
  2
PHANTOMX2
 70
     0
  3
PHANTOMX2
 72
    65
 73
     6
 40
5.0
 49
2.5
 74
     0
 49
-0.5
 74
     0
 49
0.5
 74
     0
 49
-0.5
 74
     0
 49
0.5
 74
     0
 49
-0.5
 74
     0
  0
ENDTAB
  0
TABLE
  2
LAYER
  5
2
330
0
100
AcDbSymbolTable
 70
     4
  0
LAYER
  5
10
330
2
100
AcDbSymbolTableRecord
100
AcDbLayerTableRecord
  2
0
 70
     0
 62
     7
  6
CONTINUOUS
370
    -3
390
F
  0
LAYER
  5
3A
330
2
100
AcDbSymbolTableRecord
100
AcDbLayerTableRecord
  2
001
 70
     0
 62
     7
  6
CONTINUOUS
370
    -3
390
F
  0
LAYER
  5
3B
330
2
100
AcDbSymbolTableRecord
100
AcDbLayerTableRecord
  2
002
 70
     0
 62
     7
  6
CONTINUOUS
370
    -3
390
F
  0
LAYER
  5
3C
330
2
100
AcDbSymbolTableRecord
100
AcDbLayerTableRecord
  2
255
 70
     0
 62
     7
  6
CONTINUOUS
370
    -3
390
F
  0
ENDTAB
  0
TABLE
  2
STYLE
  5
3
330
0
100
AcDbSymbolTable
 70
     2
  0
STYLE
  5
11
330
3
100
AcDbSymbolTableRecord
100
AcDbTextStyleTableRecord
  2
STANDARD
 70
     0
 40
0.0
 41
1.0
 50
0.0
 71
     0
 42
0.2
  3
TXT
  4
BIGFONT
  0
STYLE
  5
3D
330
3
100
AcDbSymbolTableRecord
100
AcDbTextStyleTableRecord
  2
TATEGAKI
 70
     4
 40
1.0
 41
1.0
 50
0.0
 71
     0
 42
0.2
  3
TXT
  4
BIGFONT
  0
ENDTAB
  0
TABLE
  2
VIEW
  5
6
330
0
100
AcDbSymbolTable
 70
     0
  0
ENDTAB
  0
TABLE
  2
UCS
  5
7
330
0
100
AcDbSymbolTable
 70
     0
  0
ENDTAB
  0
TABLE
  2
APPID
  5
9
330
0
100
AcDbSymbolTable
 70
     1
  0
APPID
  5
12
330
9
100
AcDbSymbolTableRecord
100
AcDbRegAppTableRecord
  2
ACAD
 70
     0
  0
ENDTAB
  0
TABLE
  2
DIMSTYLE
  5
A
330
0
100
AcDbSymbolTable
 70
     1
100
AcDbDimStyleTable
 71
     1
340
2C7
  0
DIMSTYLE
105
2C7
330
A
100
AcDbSymbolTableRecord
100
AcDbDimStyleTableRecord
  2
Standard
 70
     0
340
11
  0
ENDTAB
  0
TABLE
  2
BLOCK_RECORD
  5
1
330
0
100
AcDbSymbolTable
 70
    15
  0
BLOCK_RECORD
  5
1E
330
1
100
AcDbSymbolTableRecord
100
AcDbBlockTableRecord
  2
*Model_Space
340
21
  0
BLOCK_RECORD
  5
1A
330
1
100
AcDbSymbolTableRecord
100
AcDbBlockTableRecord
  2
*Paper_Space
340
1D
  0
BLOCK_RECORD
  5
41
330
1
100
AcDbSymbolTableRecord
100
AcDbBlockTableRecord
  2
PART0
340
0
  0
BLOCK_RECORD
  5
162
330
1
100
AcDbSymbolTableRecord
100
AcDbBlockTableRecord
  2
ARROW
340
0
102
{BLKREFS
331
16F
331
170
331
17B
331
17C
331
187
331
188
331
195
331
196
331
1A3
331
1A4
331
1AF
331
1B0
331
1BD
331
1BE
331
1CB
331
1CC
331
1D7
331
1D8
331
1E3
331
1E4
331
1ED
331
1F5
331
4CC
331
4CD
331
4D2
331
4D3
331
4D8
331
4D9
331
4DE
331
4DF
331
4E4
331
4EB
331
4EC
331
4EF
331
4F5
331
4F6
331
4FD
331
4FE
331
503
331
504
331
50B
331
50C
331
51B
331
51C
102
}
  0
BLOCK_RECORD
  5
1FB
330
1
100
AcDbSymbolTableRecord
100
AcDbBlockTableRecord
  2
PART1
340
0
  0
ENDTAB
  0
ENDSEC
  0
SECTION
  2
BLOCKS
  0
BLOCK
  5
1F
330
1E
100
AcDbEntity
  8
0
100
AcDbBlockBegin
  2
*Model_Space
 70
     0
 10
0.0
 20
0.0
 30
0.0
  3
*Model_Space
  1

  0
ENDBLK
  5
20
330
1E
100
AcDbEntity
  8
0
100
AcDbBlockEnd
  0
BLOCK
  5
1B
330
1A
100
AcDbEntity
 67
     1
  8
0
100
AcDbBlockBegin
  2
*Paper_Space
 70
     0
 10
0.0
 20
0.0
 30
0.0
  3
*Paper_Space
  1

  0
ENDBLK
  5
1C
330
1A
100
AcDbEntity
 67
     1
  8
0
100
AcDbBlockEnd
  0
BLOCK
  5
42
330
41
100
AcDbEntity
  8
001
100
AcDbBlockBegin
  2
PART0
 70
     0
 10
0.0
 20
0.0
 30
0.0
  3
PART0
  1

  0
LINE
  5
43
330
41
100
AcDbEntity
  8
255
 62
     3
100
AcDbLine
 10
-197.5
 20
-136.0
 30
0.0
 11
-197.5
 21
136.0
 31
0.0
  0
TEXT
  5
44
330
41
100
AcDbEntity
  8
255
 62
     3
100
AcDbText
 10
203.6999999999999
 20
77.0
 30
0.0
 40
4.0
  1
図番
 50
90.00000300000001
 41
0.833333
100
AcDbText
  0
LINE
  5
45
330
41
100
AcDbEntity
  8
255
 62
     3
100
AcDbLine
 10
205.5
 20
136.0
 30
0.0
 11
205.5
 21
75.0
 31
0.0
  0
LINE
  5
46
330
41
100
AcDbEntity
  8
255
 62
     3
100
AcDbLine
 10
197.5
 20
87.0
 30
0.0
 11
205.5
 21
87.0
 31
0.0
  0
LINE
  5
47
330
41
100
AcDbEntity
  8
255
 62
     3
100
AcDbLine
 10
205.5
 20
75.0
 30
0.0
 11
197.5
 21
75.0
 31
0.0
  0
LINE
  5
48
330
41
100
AcDbEntity
  8
255
 62
     3
100
AcDbLine
 10
197.5
 20
136.0
 30
0.0
 11
205.5
 21
136.0
 31
0.0
  0
TEXT
  5
49
330
41
100
AcDbEntity
  8
255
 62
     3
100
AcDbText
 10
184.15
 20
136.85
 30
0.0
 40
6.299999999999998
  1
A3
100
AcDbText
  0
LINE
  5
4A
330
41
100
AcDbEntity
  8
255
 62
     3
100
AcDbLine
 10
197.5
 20
144.0
 30
0.0
 11
197.5
 21
136.0
 31
0.0
  0
LINE
  5
4B
330
41
100
AcDbEntity
  8
255
 62
     3
100
AcDbLine
 10
197.5
 20
144.0
 30
0.0
 11
182.5
 21
144.0
 31
0.0
  0
LINE
  5
4C
330
41
100
AcDbEntity
  8
255
 62
     3
100
AcDbLine
 10
182.5
 20
144.0
 30
0.0
 11
182.5
 21
136.0
 31
0.0
  0
LINE
  5
4D
330
41
100
AcDbEntity
  8
255
 62
     3
100
AcDbLine
 10
-137.5
 20
144.0
 30
0.0
 11
-137.5
 21
136.0
 31
0.0
  0
LINE
  5
4E
330
41
100
AcDbEntity
  8
255
 62
     3
100
AcDbLine
 10
-137.5
 20
144.0
 30
0.0
 11
-197.5
 21
144.0
 31
0.0
  0
LINE
  5
4F
330
41
100
AcDbEntity
  8
255
 62
     3
100
AcDbLine
 10
-152.5
 20
144.0
 30
0.0
 11
-152.5
 21
136.0
 31
0.0
  0
LINE
  5
50
330
41
100
AcDbEntity
  8
255
 62
     3
100
AcDbLine
 10
-167.5
 20
144.0
 30
0.0
 11
-167.5
 21
136.0
 31
0.0
  0
LINE
  5
51
330
41
100
AcDbEntity
  8
255
 62
     3
100
AcDbLine
 10
-182.5
 20
144.0
 30
0.0
 11
-182.5
 21
136.0
 31
0.0
  0
LINE
  5
52
330
41
100
AcDbEntity
  8
255
 62
     3
100
AcDbLine
 10
-197.5
 20
136.0
 30
0.0
 11
-197.5
 21
144.0
 31
0.0
  0
LINE
  5
53
330
41
100
AcDbEntity
  8
255
 62
     3
100
AcDbLine
 10
197.5
 20
136.0
 30
0.0
 11
-197.5
 21
136.0
 31
0.0
  0
TEXT
  5
54
330
41
100
AcDbEntity
  8
255
 62
     3
100
AcDbText
 10
180.9
 20
-103.0999999999999
 30
0.0
 40
4.0
  1
備考
 41
0.833333
100
AcDbText
  0
TEXT
  5
55
330
41
100
AcDbEntity
  8
255
 62
     3
100
AcDbText
 10
126.9
 20
-102.9
 30
0.0
 40
4.0
  1
個数
 41
0.833333
100
AcDbText
  0
TEXT
  5
56
330
41
100
AcDbEntity
  8
255
 62
     3
100
AcDbText
 10
76.90000000000002
 20
-102.9
 30
0.0
 40
4.0
  1
品名
 41
0.833333
100
AcDbText
  0
TEXT
  5
57
330
41
100
AcDbEntity
  8
255
 62
     3
100
AcDbText
 10
40.89999999999998
 20
-102.9
 30
0.0
 40
4.0
  1
図番
 41
0.833333
100
AcDbText
  0
TEXT
  5
58
330
41
100
AcDbEntity
  8
255
 62
     3
100
AcDbText
 10
29.5
 20
-102.9
 30
0.0
 40
4.0
  1
部番
 41
0.833333
100
AcDbText
  0
TEXT
  5
59
330
41
100
AcDbEntity
  8
255
 62
     3
100
AcDbText
 10
-73.09999999999998
 20
-124.5
 30
0.0
 40
4.0
  1
記号
 41
0.833333
100
AcDbText
  0
TEXT
  5
5A
330
41
100
AcDbEntity
  8
255
 62
     3
100
AcDbText
 10
-13.1
 20
-124.5
 30
0.0
 40
4.0
  1
年月日
 41
0.833333
100
AcDbText
  0
TEXT
  5
5B
330
41
100
AcDbEntity
  8
255
 62
     3
100
AcDbText
 10
2.5
 20
-124.5
 30
0.0
 40
4.0
  1
氏名
 41
0.833333
100
AcDbText
  0
TEXT
  5
5C
330
41
100
AcDbEntity
  8
255
 62
     3
100
AcDbText
 10
16.3
 20
-124.5
 30
0.0
 40
4.0
  1
承認
 41
0.833333
100
AcDbText
  0
TEXT
  5
5D
330
41
100
AcDbEntity
  8
255
 62
     3
100
AcDbText
 10
128.4999999999999
 20
-105.4999999999999
 30
0.0
 40
4.0
  1
図名
 50
0.0000010000000028
 41
0.833333
 51
1.570796
  7
TATEGAKI
100
AcDbText
  0
TEXT
  5
5E
330
41
100
AcDbEntity
  8
255
 62
     3
100
AcDbText
 10
128.4999999999999
 20
-116.5
 30
0.0
 40
4.0
  1
図番
 50
0.0000010000000028
 41
0.833333
 51
1.570796
  7
TATEGAKI
100
AcDbText
  0
TEXT
  5
5F
330
41
100
AcDbEntity
  8
255
 62
     3
100
AcDbText
 10
104.4999999999999
 20
-121.5
 30
0.0
 40
4.0
  1
設計
 50
0.0000010000000028
 41
0.833333
 51
1.570796
  7
TATEGAKI
100
AcDbText
  0
TEXT
  5
60
330
41
100
AcDbEntity
  8
255
 62
     3
100
AcDbText
 10
78.5
 20
-121.5
 30
0.0
 40
4.0
  1
検図
 50
0.0000010000000028
 41
0.833333
 51
1.570796
  7
TATEGAKI
100
AcDbText
  0
TEXT
  5
61
330
41
100
AcDbEntity
  8
255
 62
     3
100
AcDbText
 10
54.5
 20
-105.4999999999999
 30
0.0
 40
4.0
  1
材質
 50
0.0000010000000028
 41
0.833333
 51
1.570796
  7
TATEGAKI
100
AcDbText
  0
TEXT
  5
62
330
41
100
AcDbEntity
  8
255
 62
     3
100
AcDbText
 10
54.5
 20
-121.5
 30
0.0
 40
4.0
  1
承認
 50
0.0000010000000028
 41
0.833333
 51
1.570796
  7
TATEGAKI
100
AcDbText
  0
TEXT
  5
63
330
41
100
AcDbEntity
  8
255
 62
     3
100
AcDbText
 10
30.5
 20
-105.4999999999999
 30
0.0
 40
4.0
  1
図法
 50
0.0000010000000028
 41
0.833333
 51
1.570796
  7
TATEGAKI
100
AcDbText
  0
TEXT
  5
64
330
41
100
AcDbEntity
  8
255
 62
     3
100
AcDbText
 10
30.5
 20
-116.5
 30
0.0
 40
4.0
  1
尺度
 50
0.0000010000000028
 41
0.833333
 51
1.570796
  7
TATEGAKI
100
AcDbText
  0
TEXT
  5
65
330
41
100
AcDbEntity
  8
255
 62
     3
100
AcDbText
 10
30.5
 20
-127.0
 30
0.0
 40
4.0
  1
単位
 50
0.0000010000000028
 41
0.833333
 51
1.570796
  7
TATEGAKI
100
AcDbText
  0
TEXT
  5
66
330
41
100
AcDbEntity
  8
255
 62
     3
100
AcDbText
 10
-11.5
 20
-126.5
 30
0.0
 40
3.0
  1
許容差
 50
0.0000010000000028
 41
0.833333
 51
1.570796
  7
TATEGAKI
100
AcDbText
  0
TEXT
  5
67
330
41
100
AcDbEntity
  8
255
 62
     3
100
AcDbText
 10
-69.5
 20
-126.5
 30
0.0
 40
3.0
  1
製品名
 50
0.0000010000000028
 41
0.833333
 51
1.570796
  7
TATEGAKI
100
AcDbText
  0
TEXT
  5
68
330
41
100
AcDbEntity
  8
255
 62
     3
100
AcDbText
 10
-47.7
 20
-124.5
 30
0.0
 40
4.0
  1
変更記事
 41
0.833333
100
AcDbText
  0
TEXT
  5
69
330
41
100
AcDbEntity
  8
255
 62
     3
100
AcDbText
 10
162.9
 20
-102.9
 30
0.0
 40
4.0
  1
寸法
 41
0.833333
100
AcDbText
  0
TEXT
  5
6A
330
41
100
AcDbEntity
  8
255
 62
     3
100
AcDbText
 10
144.9
 20
-102.9
 30
0.0
 40
4.0
  1
材質
 41
0.833333
100
AcDbText
  0
LINE
  5
6B
330
41
100
AcDbEntity
  8
255
 62
     3
100
AcDbLine
 10
-74.5
 20
-98.0
 30
0.0
 11
197.5
 21
-98.0
 31
0.0
  0
LINE
  5
6C
330
41
100
AcDbEntity
  8
255
 62
     3
100
AcDbLine
 10
-74.5
 20
-136.0
 30
0.0
 11
197.5
 21
-136.0
 31
0.0
  0
LINE
  5
6D
330
41
100
AcDbEntity
  8
255
 62
     3
100
AcDbLine
 10
197.5
 20
-126.0
 30
0.0
 11
107.4999999999999
 21
-126.0
 31
0.0
  0
LINE
  5
6E
330
41
100
AcDbEntity
  8
255
 62
     3
100
AcDbLine
 10
125.5
 20
-98.0
 30
0.0
 11
125.5
 21
-136.0
 31
0.0
  0
LINE
  5
6F
330
41
100
AcDbEntity
  8
255
 62
     3
100
AcDbLine
 10
131.4999999999999
 20
-104.0
 30
0.0
 11
131.4999999999999
 21
-126.0
 31
0.0
  0
LINE
  5
70
330
41
100
AcDbEntity
  8
255
 62
     3
100
AcDbLine
 10
143.5
 20
-98.0
 30
0.0
 11
143.5
 21
-104.0
 31
0.0
  0
LINE
  5
71
330
41
100
AcDbEntity
  8
255
 62
     3
100
AcDbLine
 10
161.5
 20
-98.0
 30
0.0
 11
161.5
 21
-104.0
 31
0.0
  0
LINE
  5
72
330
41
100
AcDbEntity
  8
255
 62
     3
100
AcDbLine
 10
179.4999999999999
 20
-98.0
 30
0.0
 11
179.4999999999999
 21
-104.0
 31
0.0
  0
LINE
  5
73
330
41
100
AcDbEntity
  8
255
 62
     3
100
AcDbLine
 10
197.5
 20
-136.0
 30
0.0
 11
197.5
 21
-98.0
 31
0.0
  0
LINE
  5
74
330
41
100
AcDbEntity
  8
255
 62
     3
100
AcDbLine
 10
107.4999999999999
 20
-115.0
 30
0.0
 11
107.4999999999999
 21
-136.0
 31
0.0
  0
LINE
  5
75
330
41
100
AcDbEntity
  8
255
 62
     3
100
AcDbLine
 10
197.5
 20
-115.0
 30
0.0
 11
27.5
 21
-115.0
 31
0.0
  0
LINE
  5
76
330
41
100
AcDbEntity
  8
255
 62
     3
100
AcDbLine
 10
101.5
 20
-115.0
 30
0.0
 11
101.5
 21
-136.0
 31
0.0
  0
LINE
  5
77
330
41
100
AcDbEntity
  8
255
 62
     3
100
AcDbLine
 10
101.5
 20
-126.0
 30
0.0
 11
81.5
 21
-126.0
 31
0.0
  0
LINE
  5
78
330
41
100
AcDbEntity
  8
255
 62
     3
100
AcDbLine
 10
81.5
 20
-115.0
 30
0.0
 11
81.5
 21
-136.0
 31
0.0
  0
LINE
  5
79
330
41
100
AcDbEntity
  8
255
 62
     3
100
AcDbLine
 10
75.5
 20
-115.0
 30
0.0
 11
75.5
 21
-136.0
 31
0.0
  0
LINE
  5
7A
330
41
100
AcDbEntity
  8
255
 62
     3
100
AcDbLine
 10
75.5
 20
-126.0
 30
0.0
 11
57.5
 21
-126.0
 31
0.0
  0
LINE
  5
7B
330
41
100
AcDbEntity
  8
255
 62
     3
100
AcDbLine
 10
57.5
 20
-104.0
 30
0.0
 11
57.5
 21
-136.0
 31
0.0
  0
LINE
  5
7C
330
41
100
AcDbEntity
  8
255
 62
     3
100
AcDbLine
 10
51.5
 20
-104.0
 30
0.0
 11
51.5
 21
-136.0
 31
0.0
  0
LINE
  5
7D
330
41
100
AcDbEntity
  8
255
 62
     3
100
AcDbLine
 10
27.5
 20
-126.0
 30
0.0
 11
51.5
 21
-126.0
 31
0.0
  0
LINE
  5
7E
330
41
100
AcDbEntity
  8
255
 62
     3
100
AcDbLine
 10
33.5
 20
-104.0
 30
0.0
 11
33.5
 21
-136.0
 31
0.0
  0
LINE
  5
7F
330
41
100
AcDbEntity
  8
255
 62
     3
100
AcDbLine
 10
197.5
 20
-104.0
 30
0.0
 11
27.5
 21
-104.0
 31
0.0
  0
LINE
  5
80
330
41
100
AcDbEntity
  8
255
 62
     3
100
AcDbLine
 10
39.5
 20
-98.0
 30
0.0
 11
39.5
 21
-104.0
 31
0.0
  0
LINE
  5
81
330
41
100
AcDbEntity
  8
255
 62
     3
100
AcDbLine
 10
75.5
 20
-98.0
 30
0.0
 11
75.5
 21
-104.0
 31
0.0
  0
LINE
  5
82
330
41
100
AcDbEntity
  8
255
 62
     3
100
AcDbLine
 10
27.5
 20
-105.0
 30
0.0
 11
-74.5
 21
-105.0
 31
0.0
  0
LINE
  5
83
330
41
100
AcDbEntity
  8
255
 62
     3
100
AcDbLine
 10
13.5
 20
-98.0
 30
0.0
 11
13.5
 21
-126.0
 31
0.0
  0
LINE
  5
84
330
41
100
AcDbEntity
  8
255
 62
     3
100
AcDbLine
 10
-0.5
 20
-98.0
 30
0.0
 11
-0.5
 21
-126.0
 31
0.0
  0
LINE
  5
85
330
41
100
AcDbEntity
  8
255
 62
     3
100
AcDbLine
 10
27.5
 20
-112.0
 30
0.0
 11
-74.5
 21
-112.0
 31
0.0
  0
LINE
  5
86
330
41
100
AcDbEntity
  8
255
 62
     3
100
AcDbLine
 10
-64.5
 20
-98.0
 30
0.0
 11
-64.5
 21
-136.0
 31
0.0
  0
LINE
  5
87
330
41
100
AcDbEntity
  8
255
 62
     3
100
AcDbLine
 10
-14.5
 20
-98.0
 30
0.0
 11
-14.5
 21
-136.0
 31
0.0
  0
LINE
  5
88
330
41
100
AcDbEntity
  8
255
 62
     3
100
AcDbLine
 10
27.5
 20
-119.0
 30
0.0
 11
-74.5
 21
-119.0
 31
0.0
  0
LINE
  5
89
330
41
100
AcDbEntity
  8
255
 62
     3
100
AcDbLine
 10
27.5
 20
-126.0
 30
0.0
 11
-74.5
 21
-126.0
 31
0.0
  0
LINE
  5
8A
330
41
100
AcDbEntity
  8
255
 62
     3
100
AcDbLine
 10
-8.5
 20
-126.0
 30
0.0
 11
-8.5
 21
-136.0
 31
0.0
  0
LINE
  5
8B
330
41
100
AcDbEntity
  8
255
 62
     3
100
AcDbLine
 10
27.5
 20
-98.0
 30
0.0
 11
27.5
 21
-136.0
 31
0.0
  0
LINE
  5
8C
330
41
100
AcDbEntity
  8
255
 62
     3
100
AcDbLine
 10
141.650688
 20
-133.511004
 30
0.0
 11
138.5706879999996
 21
-133.511004
 31
0.0
  0
LINE
  5
8D
330
41
100
AcDbEntity
  8
255
 62
     3
100
AcDbLine
 10
147.3706879999999
 20
-131.231004
 30
0.0
 11
147.3706879999999
 21
-133.511004
 31
0.0
  0
LINE
  5
8E
330
41
100
AcDbEntity
  8
255
 62
     3
100
AcDbLine
 10
148.1706879999999
 20
-133.511004
 30
0.0
 11
148.1706879999999
 21
-130.3110039999999
 31
0.0
  0
LINE
  5
8F
330
41
100
AcDbEntity
  8
255
 62
     3
100
AcDbLine
 10
144.4106879999999
 20
-130.3110039999999
 30
0.0
 11
144.4106879999999
 21
-133.511004
 31
0.0
  0
LINE
  5
90
330
41
100
AcDbEntity
  8
255
 62
     3
100
AcDbLine
 10
146.3306879999999
 20
-133.511004
 30
0.0
 11
146.3306879999999
 21
-131.231004
 31
0.0
  0
LINE
  5
91
330
41
100
AcDbEntity
  8
255
 62
     3
100
AcDbLine
 10
149.2106879999998
 20
-132.1510039999999
 30
0.0
 11
149.2106879999998
 21
-133.511004
 31
0.0
  0
LINE
  5
92
330
41
100
AcDbEntity
  8
255
 62
     3
100
AcDbLine
 10
151.130688
 20
-133.511004
 30
0.0
 11
151.130688
 21
-132.871004
 31
0.0
  0
LINE
  5
93
330
41
100
AcDbEntity
  8
255
 62
     3
100
AcDbLine
 10
140.0506879999996
 20
-130.791004
 30
0.0
 11
142.5706879999999
 21
-130.791004
 31
0.0
  0
LINE
  5
94
330
41
100
AcDbEntity
  8
255
 62
     3
100
AcDbLine
 10
141.0906879999999
 20
-133.031004
 30
0.0
 11
138.5706879999996
 21
-133.031004
 31
0.0
  0
LINE
  5
95
330
41
100
AcDbEntity
  8
255
 62
     3
100
AcDbLine
 10
141.650688
 20
-131.671004
 30
0.0
 11
140.0506879999996
 21
-131.671004
 31
0.0
  0
LINE
  5
96
330
41
100
AcDbEntity
  8
255
 62
     3
100
AcDbLine
 10
141.0906879999999
 20
-132.1510039999999
 30
0.0
 11
139.4906879999996
 21
-132.1510039999999
 31
0.0
  0
LINE
  5
97
330
41
100
AcDbEntity
  8
255
 62
     3
100
AcDbLine
 10
136.0627819999999
 20
-133.3934459999996
 30
0.0
 11
136.7411669999997
 21
-132.715062
 31
0.0
  0
LINE
  5
98
330
41
100
AcDbEntity
  8
255
 62
     3
100
AcDbLine
 10
135.7152759999999
 20
-133.4015409999999
 30
0.0
 11
136.749262
 21
-132.367555
 31
0.0
  0
LINE
  5
99
330
41
100
AcDbEntity
  8
255
 62
     3
100
AcDbLine
 10
135.375865
 20
-133.4015409999999
 30
0.0
 11
136.749262
 21
-132.028144
 31
0.0
  0
LINE
  5
9A
330
41
100
AcDbEntity
  8
255
 62
     3
100
AcDbLine
 10
135.036453
 20
-133.4015409999999
 30
0.0
 11
136.749262
 21
-131.688733
 31
0.0
  0
LINE
  5
9B
330
41
100
AcDbEntity
  8
255
 62
     3
100
AcDbLine
 10
134.6970419999999
 20
-133.4015409999999
 30
0.0
 11
136.749262
 21
-131.349321
 31
0.0
  0
LINE
  5
9C
330
41
100
AcDbEntity
  8
255
 62
     3
100
AcDbLine
 10
134.3576309999999
 20
-133.4015409999999
 30
0.0
 11
136.749262
 21
-131.00991
 31
0.0
  0
LINE
  5
9D
330
41
100
AcDbEntity
  8
255
 62
     3
100
AcDbLine
 10
134.0182199999996
 20
-133.4015409999999
 30
0.0
 11
136.749262
 21
-130.670499
 31
0.0
  0
LINE
  5
9E
330
41
100
AcDbEntity
  8
255
 62
     3
100
AcDbLine
 10
133.678808
 20
-133.4015409999999
 30
0.0
 11
136.749262
 21
-130.3310879999999
 31
0.0
  0
LINE
  5
9F
330
41
100
AcDbEntity
  8
255
 62
     3
100
AcDbLine
 10
133.3393969999999
 20
-133.4015409999999
 30
0.0
 11
136.749262
 21
-129.991676
 31
0.0
  0
LINE
  5
A0
330
41
100
AcDbEntity
  8
255
 62
     3
100
AcDbLine
 10
132.999986
 20
-133.4015409999999
 30
0.0
 11
136.749262
 21
-129.6522649999999
 31
0.0
  0
LINE
  5
A1
330
41
100
AcDbEntity
  8
255
 62
     3
100
AcDbLine
 10
132.6605749999999
 20
-133.4015409999999
 30
0.0
 11
136.5842189999999
 21
-129.4778969999996
 31
0.0
  0
LINE
  5
A2
330
41
100
AcDbEntity
  8
255
 62
     3
100
AcDbLine
 10
131.6510279999999
 20
-133.012912
 30
0.0
 11
135.2623989999997
 21
-129.4015409999996
 31
0.0
  0
LINE
  5
A3
330
41
100
AcDbEntity
  8
255
 62
     3
100
AcDbLine
 10
130.134702
 20
-133.042375
 30
0.0
 11
133.7674959999999
 21
-129.4095809999999
 31
0.0
  0
LINE
  5
A4
330
41
100
AcDbEntity
  8
255
 62
     3
100
AcDbLine
 10
133.160593
 20
-129.7902099999999
 30
0.0
 11
129.549262
 21
-133.4015409999999
 31
0.0
  0
LINE
  5
A5
330
41
100
AcDbEntity
  8
255
 62
     3
100
AcDbLine
 10
134.341181
 20
-129.87021
 30
0.0
 11
130.745931
 21
-133.46546
 31
0.0
  0
ARC
  5
A6
330
41
100
AcDbEntity
  8
255
 62
     3
100
AcDbCircle
 10
135.472552
 20
-131.001581
 30
0.0
 40
1.6
100
AcDbArc
 50
98.130102
 51
135.0
  0
ARC
  5
A7
330
41
100
AcDbEntity
  8
255
 62
     3
100
AcDbCircle
 10
129.003331
 20
-131.9110039999999
 30
0.0
 40
1.6
100
AcDbArc
 50
289.158067
 51
315.0
  0
ARC
  5
A8
330
41
100
AcDbEntity
  8
255
 62
     3
100
AcDbCircle
 10
134.2919639999996
 20
-130.9215809999999
 30
0.0
 40
1.6
100
AcDbArc
 50
109.1580669999999
 51
135.0
  0
LINE
  5
A9
330
41
100
AcDbEntity
  8
255
 62
     3
100
AcDbLine
 10
131.288136
 20
-133.149529
 30
0.0
 11
134.890848
 21
-129.546818
 31
0.0
  0
ARC
  5
AA
330
41
100
AcDbEntity
  8
255
 62
     3
100
AcDbCircle
 10
137.0725919999999
 20
-131.001541
 30
0.0
 40
1.6
100
AcDbArc
 50
101.389514
 51
135.0
  0
LINE
  5
AB
330
41
100
AcDbEntity
  8
255
 62
     3
100
AcDbLine
 10
135.9412209999999
 20
-129.87017
 30
0.0
 11
132.409851
 21
-133.4015409999999
 31
0.0
  0
LINE
  5
AC
330
41
100
AcDbEntity
  8
255
 62
     3
100
AcDbLine
 10
132.409851
 20
-133.4015409999999
 30
0.0
 11
135.949262
 21
-133.4015409999999
 31
0.0
  0
ARC
  5
AD
330
41
100
AcDbEntity
  8
255
 62
     3
100
AcDbCircle
 10
135.949262
 20
-132.6015409999999
 30
0.0
 40
0.8
100
AcDbArc
 50
270.0
 51
0.0
  0
LINE
  5
AE
330
41
100
AcDbEntity
  8
255
 62
     3
100
AcDbLine
 10
136.749262
 20
-132.6015409999999
 30
0.0
 11
136.749262
 21
-129.434551
 31
0.0
  0
ARC
  5
AF
330
41
100
AcDbEntity
  8
255
 62
     3
100
AcDbCircle
 10
130.5196569999999
 20
-131.881541
 30
0.0
 40
1.6
100
AcDbArc
 50
278.130102
 51
315.0
  0
ARC
  5
B0
330
41
100
AcDbEntity
  8
255
 62
     3
100
AcDbCircle
 10
139.4906879999996
 20
-131.231004
 30
0.0
 40
0.9200000000000001
100
AcDbArc
 50
90.0
 51
270.0
  0
ARC
  5
B1
330
41
100
AcDbEntity
  8
255
 62
     3
100
AcDbCircle
 10
141.0906879999999
 20
-132.5910039999999
 30
0.0
 40
0.4400000000000003
100
AcDbArc
 50
270.0
 51
90.0
  0
ARC
  5
B2
330
41
100
AcDbEntity
  8
255
 62
     3
100
AcDbCircle
 10
140.0506879999996
 20
-131.231004
 30
0.0
 40
0.4400000000000003
100
AcDbArc
 50
90.0
 51
270.0
  0
ARC
  5
B3
330
41
100
AcDbEntity
  8
255
 62
     3
100
AcDbCircle
 10
141.650688
 20
-132.5910039999999
 30
0.0
 40
0.9200000000000001
100
AcDbArc
 50
270.0
 51
90.0
  0
LINE
  5
B4
330
41
100
AcDbEntity
  8
255
 62
     3
100
AcDbLine
 10
144.4106879999999
 20
-133.511004
 30
0.0
 11
143.370688
 21
-133.511004
 31
0.0
  0
LINE
  5
B5
330
41
100
AcDbEntity
  8
255
 62
     3
100
AcDbLine
 10
144.7706879999999
 20
-130.791004
 30
0.0
 11
144.7706879999999
 21
-130.3110039999999
 31
0.0
  0
LINE
  5
B6
330
41
100
AcDbEntity
  8
255
 62
     3
100
AcDbLine
 10
139.4906879999996
 20
-130.3110039999999
 30
0.0
 11
142.5706879999999
 21
-130.3110039999999
 31
0.0
  0
LINE
  5
B7
330
41
100
AcDbEntity
  8
255
 62
     3
100
AcDbLine
 10
144.4106879999999
 20
-130.3110039999999
 30
0.0
 11
143.370688
 21
-130.3110039999999
 31
0.0
  0
LINE
  5
B8
330
41
100
AcDbEntity
  8
255
 62
     3
100
AcDbLine
 10
143.370688
 20
-133.511004
 30
0.0
 11
143.370688
 21
-130.3110039999999
 31
0.0
  0
LINE
  5
B9
330
41
100
AcDbEntity
  8
255
 62
     3
100
AcDbLine
 10
147.3706879999999
 20
-133.511004
 30
0.0
 11
146.3306879999999
 21
-133.511004
 31
0.0
  0
LINE
  5
BA
330
41
100
AcDbEntity
  8
255
 62
     3
100
AcDbLine
 10
146.4506879999999
 20
-130.3110039999999
 30
0.0
 11
144.7706879999999
 21
-130.3110039999999
 31
0.0
  0
LINE
  5
BB
330
41
100
AcDbEntity
  8
255
 62
     3
100
AcDbLine
 10
144.7706879999999
 20
-130.791004
 30
0.0
 11
145.8906879999998
 21
-130.791004
 31
0.0
  0
ARC
  5
BC
330
41
100
AcDbEntity
  8
255
 62
     3
100
AcDbCircle
 10
145.8906879999998
 20
-131.231004
 30
0.0
 40
0.4400000000000003
100
AcDbArc
 50
0.0
 51
90.0
  0
LINE
  5
BD
330
41
100
AcDbEntity
  8
255
 62
     3
100
AcDbLine
 10
152.1706879999999
 20
-133.511004
 30
0.0
 11
151.130688
 21
-133.511004
 31
0.0
  0
LINE
  5
BE
330
41
100
AcDbEntity
  8
255
 62
     3
100
AcDbLine
 10
151.130688
 20
-130.3110039999999
 30
0.0
 11
152.1706879999999
 21
-130.3110039999999
 31
0.0
  0
ARC
  5
BF
330
41
100
AcDbEntity
  8
255
 62
     3
100
AcDbCircle
 10
146.4506879999999
 20
-131.231004
 30
0.0
 40
0.9200000000000001
100
AcDbArc
 50
0.0
 51
90.0
  0
LINE
  5
C0
330
41
100
AcDbEntity
  8
255
 62
     3
100
AcDbLine
 10
149.2106879999998
 20
-131.671004
 30
0.0
 11
150.8906879999998
 21
-131.671004
 31
0.0
  0
LINE
  5
C1
330
41
100
AcDbEntity
  8
255
 62
     3
100
AcDbLine
 10
150.8906879999998
 20
-132.1510039999999
 30
0.0
 11
149.2106879999998
 21
-132.1510039999999
 31
0.0
  0
LINE
  5
C2
330
41
100
AcDbEntity
  8
255
 62
     3
100
AcDbLine
 10
152.1706879999999
 20
-133.111004
 30
0.0
 11
152.1706879999999
 21
-133.511004
 31
0.0
  0
ARC
  5
C3
330
41
100
AcDbEntity
  8
255
 62
     3
100
AcDbCircle
 10
150.9706879999999
 20
-130.7110039999999
 30
0.0
 40
1.199999999999999
100
AcDbArc
 50
270.0
 51
0.0
  0
ARC
  5
C4
330
41
100
AcDbEntity
  8
255
 62
     3
100
AcDbCircle
 10
150.9706879999999
 20
-133.111004
 30
0.0
 40
1.199999999999999
100
AcDbArc
 50
0.0
 51
90.0
  0
ARC
  5
C5
330
41
100
AcDbEntity
  8
255
 62
     3
100
AcDbCircle
 10
149.9306879999999
 20
-132.871004
 30
0.0
 40
1.199999999999999
100
AcDbArc
 50
0.0
 51
36.869898
  0
LINE
  5
C6
330
41
100
AcDbEntity
  8
255
 62
     3
100
AcDbLine
 10
151.130688
 20
-130.951004
 30
0.0
 11
151.130688
 21
-130.3110039999999
 31
0.0
  0
ARC
  5
C7
330
41
100
AcDbEntity
  8
255
 62
     3
100
AcDbCircle
 10
149.9306879999999
 20
-130.951004
 30
0.0
 40
1.199999999999999
100
AcDbArc
 50
323.130102
 51
0.0
  0
LINE
  5
C8
330
41
100
AcDbEntity
  8
255
 62
     3
100
AcDbLine
 10
149.2106879999998
 20
-133.511004
 30
0.0
 11
148.1706879999999
 21
-133.511004
 31
0.0
  0
LINE
  5
C9
330
41
100
AcDbEntity
  8
255
 62
     3
100
AcDbLine
 10
152.1706879999999
 20
-130.3110039999999
 30
0.0
 11
152.1706879999999
 21
-130.7110039999999
 31
0.0
  0
LINE
  5
CA
330
41
100
AcDbEntity
  8
255
 62
     3
100
AcDbLine
 10
149.2106879999998
 20
-130.3110039999999
 30
0.0
 11
148.1706879999999
 21
-130.3110039999999
 31
0.0
  0
LINE
  5
CB
330
41
100
AcDbEntity
  8
255
 62
     3
100
AcDbLine
 10
149.2106879999998
 20
-130.3110039999999
 30
0.0
 11
149.2106879999998
 21
-131.671004
 31
0.0
  0
LINE
  5
CC
330
41
100
AcDbEntity
  8
255
 62
     3
100
AcDbLine
 10
142.5706879999999
 20
-130.3110039999999
 30
0.0
 11
142.5706879999999
 21
-130.791004
 31
0.0
  0
LINE
  5
CD
330
41
100
AcDbEntity
  8
255
 62
     3
100
AcDbLine
 10
138.5706879999996
 20
-133.031004
 30
0.0
 11
138.5706879999996
 21
-133.511004
 31
0.0
  0
TEXT
  5
CE
330
41
100
AcDbEntity
  8
255
 62
     3
100
AcDbText
 10
154.7574309999999
 20
-133.911004
 30
0.0
 40
4.0
  1
三化工業株式会社
100
AcDbText
  0
LINE
  5
CF
330
41
100
AcDbEntity
  8
255
 62
     3
100
AcDbLine
 10
141.996005
 20
-133.4437389999999
 30
0.0
 11
142.503423
 21
-132.9363209999999
 31
0.0
  0
LINE
  5
D0
330
41
100
AcDbEntity
  8
255
 62
     3
100
AcDbLine
 10
141.704012
 20
-133.509457
 30
0.0
 11
142.5691409999999
 21
-132.644328
 31
0.0
  0
LINE
  5
D1
330
41
100
AcDbEntity
  8
255
 62
     3
100
AcDbLine
 10
141.476191
 20
-133.511004
 30
0.0
 11
142.5565959999999
 21
-132.430599
 31
0.0
  0
LINE
  5
D2
330
41
100
AcDbEntity
  8
255
 62
     3
100
AcDbLine
 10
141.2499169999998
 20
-133.511004
 30
0.0
 11
142.5067919999999
 21
-132.254128
 31
0.0
  0
LINE
  5
D3
330
41
100
AcDbEntity
  8
255
 62
     3
100
AcDbLine
 10
141.0236429999999
 20
-133.511004
 30
0.0
 11
142.4309979999998
 21
-132.1036479999999
 31
0.0
  0
LINE
  5
D4
330
41
100
AcDbEntity
  8
255
 62
     3
100
AcDbLine
 10
140.797368
 20
-133.511004
 30
0.0
 11
142.333712
 21
-131.9746609999999
 31
0.0
  0
LINE
  5
D5
330
41
100
AcDbEntity
  8
255
 62
     3
100
AcDbLine
 10
140.5710939999996
 20
-133.511004
 30
0.0
 11
141.0510939999998
 21
-133.031004
 31
0.0
  0
LINE
  5
D6
330
41
100
AcDbEntity
  8
255
 62
     3
100
AcDbLine
 10
141.5290479999999
 20
-132.55305
 30
0.0
 11
142.2165169999999
 21
-131.865582
 31
0.0
  0
LINE
  5
D7
330
41
100
AcDbEntity
  8
255
 62
     3
100
AcDbLine
 10
140.3448199999999
 20
-133.511004
 30
0.0
 11
140.8248199999998
 21
-133.031004
 31
0.0
  0
LINE
  5
D8
330
41
100
AcDbEntity
  8
255
 62
     3
100
AcDbLine
 10
141.4764499999999
 20
-132.379374
 30
0.0
 11
142.079024
 21
-131.7768
 31
0.0
  0
LINE
  5
D9
330
41
100
AcDbEntity
  8
255
 62
     3
100
AcDbLine
 10
140.118546
 20
-133.511004
 30
0.0
 11
140.5985459999999
 21
-133.031004
 31
0.0
  0
LINE
  5
DA
330
41
100
AcDbEntity
  8
255
 62
     3
100
AcDbLine
 10
141.37465
 20
-132.2548999999999
 30
0.0
 11
141.9186559999999
 21
-131.710894
 31
0.0
  0
LINE
  5
DB
330
41
100
AcDbEntity
  8
255
 62
     3
100
AcDbLine
 10
139.8922719999999
 20
-133.511004
 30
0.0
 11
140.372272
 21
-133.031004
 31
0.0
  0
LINE
  5
DC
330
41
100
AcDbEntity
  8
255
 62
     3
100
AcDbLine
 10
141.229726
 20
-132.173549
 30
0.0
 11
141.7289379999999
 21
-131.6743379999999
 31
0.0
  0
LINE
  5
DD
330
41
100
AcDbEntity
  8
255
 62
     3
100
AcDbLine
 10
139.665998
 20
-133.511004
 30
0.0
 11
140.145998
 21
-133.031004
 31
0.0
  0
LINE
  5
DE
330
41
100
AcDbEntity
  8
255
 62
     3
100
AcDbLine
 10
141.025998
 20
-132.1510039999999
 30
0.0
 11
141.505998
 21
-131.671004
 31
0.0
  0
LINE
  5
DF
330
41
100
AcDbEntity
  8
255
 62
     3
100
AcDbLine
 10
142.385998
 20
-130.791004
 30
0.0
 11
142.5706879999999
 21
-130.606314
 31
0.0
  0
LINE
  5
E0
330
41
100
AcDbEntity
  8
255
 62
     3
100
AcDbLine
 10
139.4397229999997
 20
-133.511004
 30
0.0
 11
139.919723
 21
-133.031004
 31
0.0
  0
LINE
  5
E1
330
41
100
AcDbEntity
  8
255
 62
     3
100
AcDbLine
 10
140.799723
 20
-132.1510039999999
 30
0.0
 11
141.2797229999999
 21
-131.671004
 31
0.0
  0
LINE
  5
E2
330
41
100
AcDbEntity
  8
255
 62
     3
100
AcDbLine
 10
142.1597229999999
 20
-130.791004
 30
0.0
 11
142.5706879999999
 21
-130.3800389999999
 31
0.0
  0
LINE
  5
E3
330
41
100
AcDbEntity
  8
255
 62
     3
100
AcDbLine
 10
139.2134489999999
 20
-133.511004
 30
0.0
 11
139.6934489999999
 21
-133.031004
 31
0.0
  0
LINE
  5
E4
330
41
100
AcDbEntity
  8
255
 62
     3
100
AcDbLine
 10
140.573449
 20
-132.1510039999999
 30
0.0
 11
141.053449
 21
-131.671004
 31
0.0
  0
LINE
  5
E5
330
41
100
AcDbEntity
  8
255
 62
     3
100
AcDbLine
 10
141.9334489999999
 20
-130.791004
 30
0.0
 11
142.4134489999999
 21
-130.3110039999999
 31
0.0
  0
LINE
  5
E6
330
41
100
AcDbEntity
  8
255
 62
     3
100
AcDbLine
 10
138.987175
 20
-133.511004
 30
0.0
 11
139.467175
 21
-133.031004
 31
0.0
  0
LINE
  5
E7
330
41
100
AcDbEntity
  8
255
 62
     3
100
AcDbLine
 10
140.347175
 20
-132.1510039999999
 30
0.0
 11
140.827175
 21
-131.671004
 31
0.0
  0
LINE
  5
E8
330
41
100
AcDbEntity
  8
255
 62
     3
100
AcDbLine
 10
141.707175
 20
-130.791004
 30
0.0
 11
142.187175
 21
-130.3110039999999
 31
0.0
  0
LINE
  5
E9
330
41
100
AcDbEntity
  8
255
 62
     3
100
AcDbLine
 10
138.760901
 20
-133.511004
 30
0.0
 11
139.240901
 21
-133.031004
 31
0.0
  0
LINE
  5
EA
330
41
100
AcDbEntity
  8
255
 62
     3
100
AcDbLine
 10
140.120901
 20
-132.1510039999999
 30
0.0
 11
140.600901
 21
-131.671004
 31
0.0
  0
LINE
  5
EB
330
41
100
AcDbEntity
  8
255
 62
     3
100
AcDbLine
 10
141.4809009999999
 20
-130.791004
 30
0.0
 11
141.960901
 21
-130.3110039999999
 31
0.0
  0
LINE
  5
EC
330
41
100
AcDbEntity
  8
255
 62
     3
100
AcDbLine
 10
138.5706879999996
 20
-133.474943
 30
0.0
 11
139.014627
 21
-133.031004
 31
0.0
  0
LINE
  5
ED
330
41
100
AcDbEntity
  8
255
 62
     3
100
AcDbLine
 10
139.894627
 20
-132.1510039999999
 30
0.0
 11
140.374627
 21
-131.671004
 31
0.0
  0
LINE
  5
EE
330
41
100
AcDbEntity
  8
255
 62
     3
100
AcDbLine
 10
141.2546269999999
 20
-130.791004
 30
0.0
 11
141.7346269999999
 21
-130.3110039999999
 31
0.0
  0
LINE
  5
EF
330
41
100
AcDbEntity
  8
255
 62
     3
100
AcDbLine
 10
138.5706879999996
 20
-133.248669
 30
0.0
 11
138.788353
 21
-133.031004
 31
0.0
  0
LINE
  5
F0
330
41
100
AcDbEntity
  8
255
 62
     3
100
AcDbLine
 10
139.6683529999999
 20
-132.1510039999999
 30
0.0
 11
140.148353
 21
-131.671004
 31
0.0
  0
LINE
  5
F1
330
41
100
AcDbEntity
  8
255
 62
     3
100
AcDbLine
 10
141.028353
 20
-130.791004
 30
0.0
 11
141.5083529999999
 21
-130.3110039999999
 31
0.0
  0
LINE
  5
F2
330
41
100
AcDbEntity
  8
255
 62
     3
100
AcDbLine
 10
139.4433
 20
-132.149783
 30
0.0
 11
139.9370149999999
 21
-131.6560669999996
 31
0.0
  0
LINE
  5
F3
330
41
100
AcDbEntity
  8
255
 62
     3
100
AcDbLine
 10
140.802078
 20
-130.791004
 30
0.0
 11
141.282078
 21
-130.3110039999999
 31
0.0
  0
LINE
  5
F4
330
41
100
AcDbEntity
  8
255
 62
     3
100
AcDbLine
 10
139.248307
 20
-132.118501
 30
0.0
 11
139.785044
 21
-131.5817649999999
 31
0.0
  0
LINE
  5
F5
330
41
100
AcDbEntity
  8
255
 62
     3
100
AcDbLine
 10
140.575804
 20
-130.791004
 30
0.0
 11
141.0558039999999
 21
-130.3110039999999
 31
0.0
  0
LINE
  5
F6
330
41
100
AcDbEntity
  8
255
 62
     3
100
AcDbLine
 10
139.084201
 20
-132.0563329999999
 30
0.0
 11
139.6770929999999
 21
-131.4634409999999
 31
0.0
  0
LINE
  5
F7
330
41
100
AcDbEntity
  8
255
 62
     3
100
AcDbLine
 10
140.34953
 20
-130.791004
 30
0.0
 11
140.8295299999998
 21
-130.3110039999999
 31
0.0
  0
LINE
  5
F8
330
41
100
AcDbEntity
  8
255
 62
     3
100
AcDbLine
 10
138.943598
 20
-131.970661
 30
0.0
 11
139.615877
 21
-131.298382
 31
0.0
  0
LINE
  5
F9
330
41
100
AcDbEntity
  8
255
 62
     3
100
AcDbLine
 10
140.1232559999999
 20
-130.791004
 30
0.0
 11
140.603256
 21
-130.3110039999999
 31
0.0
  0
LINE
  5
FA
330
41
100
AcDbEntity
  8
255
 62
     3
100
AcDbLine
 10
138.8235149999996
 20
-131.864471
 30
0.0
 11
139.6606779999999
 21
-131.0273079999996
 31
0.0
  0
LINE
  5
FB
330
41
100
AcDbEntity
  8
255
 62
     3
100
AcDbLine
 10
139.8469919999999
 20
-130.8409939999999
 30
0.0
 11
140.3769819999999
 21
-130.3110039999999
 31
0.0
  0
LINE
  5
FC
330
41
100
AcDbEntity
  8
255
 62
     3
100
AcDbLine
 10
138.7232789999996
 20
-131.738432
 30
0.0
 11
140.150708
 21
-130.3110039999999
 31
0.0
  0
LINE
  5
FD
330
41
100
AcDbEntity
  8
255
 62
     3
100
AcDbLine
 10
138.6441629999999
 20
-131.591275
 30
0.0
 11
139.9244329999999
 21
-130.3110039999999
 31
0.0
  0
LINE
  5
FE
330
41
100
AcDbEntity
  8
255
 62
     3
100
AcDbLine
 10
138.590111
 20
-131.4190519999999
 30
0.0
 11
139.698159
 21
-130.3110039999999
 31
0.0
  0
LINE
  5
FF
330
41
100
AcDbEntity
  8
255
 62
     3
100
AcDbLine
 10
138.570884
 20
-131.212005
 30
0.0
 11
139.4716889999999
 21
-130.3112
 31
0.0
  0
LINE
  5
100
330
41
100
AcDbEntity
  8
255
 62
     3
100
AcDbLine
 10
138.618583
 20
-130.938032
 30
0.0
 11
139.1977159999999
 21
-130.358899
 31
0.0
  0
LINE
  5
101
330
41
100
AcDbEntity
  8
255
 62
     3
100
AcDbLine
 10
147.359319
 20
-133.511004
 30
0.0
 11
147.3706879999999
 21
-133.499635
 31
0.0
  0
LINE
  5
102
330
41
100
AcDbEntity
  8
255
 62
     3
100
AcDbLine
 10
147.1330449999999
 20
-133.511004
 30
0.0
 11
147.3706879999999
 21
-133.273361
 31
0.0
  0
LINE
  5
103
330
41
100
AcDbEntity
  8
255
 62
     3
100
AcDbLine
 10
146.906771
 20
-133.511004
 30
0.0
 11
147.3706879999999
 21
-133.047087
 31
0.0
  0
LINE
  5
104
330
41
100
AcDbEntity
  8
255
 62
     3
100
AcDbLine
 10
146.680497
 20
-133.511004
 30
0.0
 11
147.3706879999999
 21
-132.8208129999999
 31
0.0
  0
LINE
  5
105
330
41
100
AcDbEntity
  8
255
 62
     3
100
AcDbLine
 10
146.4542229999999
 20
-133.511004
 30
0.0
 11
147.3706879999999
 21
-132.594539
 31
0.0
  0
LINE
  5
106
330
41
100
AcDbEntity
  8
255
 62
     3
100
AcDbLine
 10
146.3306879999999
 20
-133.408265
 30
0.0
 11
147.3706879999999
 21
-132.3682649999996
 31
0.0
  0
LINE
  5
107
330
41
100
AcDbEntity
  8
255
 62
     3
100
AcDbLine
 10
146.3306879999999
 20
-133.1819899999999
 30
0.0
 11
147.3706879999999
 21
-132.1419899999999
 31
0.0
  0
LINE
  5
108
330
41
100
AcDbEntity
  8
255
 62
     3
100
AcDbLine
 10
146.3306879999999
 20
-132.955716
 30
0.0
 11
147.3706879999999
 21
-131.915716
 31
0.0
  0
LINE
  5
109
330
41
100
AcDbEntity
  8
255
 62
     3
100
AcDbLine
 10
146.3306879999999
 20
-132.729442
 30
0.0
 11
147.3706879999999
 21
-131.6894419999999
 31
0.0
  0
LINE
  5
10A
330
41
100
AcDbEntity
  8
255
 62
     3
100
AcDbLine
 10
146.3306879999999
 20
-132.5031679999999
 30
0.0
 11
147.3706879999999
 21
-131.4631679999999
 31
0.0
  0
LINE
  5
10B
330
41
100
AcDbEntity
  8
255
 62
     3
100
AcDbLine
 10
146.3306879999999
 20
-132.276894
 30
0.0
 11
147.3706879999999
 21
-131.236894
 31
0.0
  0
LINE
  5
10C
330
41
100
AcDbEntity
  8
255
 62
     3
100
AcDbLine
 10
146.3306879999999
 20
-132.05062
 30
0.0
 11
147.34898
 21
-131.032328
 31
0.0
  0
LINE
  5
10D
330
41
100
AcDbEntity
  8
255
 62
     3
100
AcDbLine
 10
146.3306879999999
 20
-131.8243449999999
 30
0.0
 11
147.293318
 21
-130.861715
 31
0.0
  0
LINE
  5
10E
330
41
100
AcDbEntity
  8
255
 62
     3
100
AcDbLine
 10
146.3306879999999
 20
-131.598071
 30
0.0
 11
147.2129229999999
 21
-130.715836
 31
0.0
  0
LINE
  5
10F
330
41
100
AcDbEntity
  8
255
 62
     3
100
AcDbLine
 10
146.3306879999999
 20
-131.3717969999999
 30
0.0
 11
147.1115399999999
 21
-130.590945
 31
0.0
  0
LINE
  5
110
330
41
100
AcDbEntity
  8
255
 62
     3
100
AcDbLine
 10
146.3236409999999
 20
-131.15257
 30
0.0
 11
146.990321
 21
-130.4858889999999
 31
0.0
  0
LINE
  5
111
330
41
100
AcDbEntity
  8
255
 62
     3
100
AcDbLine
 10
146.259258
 20
-130.990679
 30
0.0
 11
146.848485
 21
-130.401452
 31
0.0
  0
LINE
  5
112
330
41
100
AcDbEntity
  8
255
 62
     3
100
AcDbLine
 10
146.148915
 20
-130.8747469999999
 30
0.0
 11
146.682877
 21
-130.340786
 31
0.0
  0
LINE
  5
113
330
41
100
AcDbEntity
  8
255
 62
     3
100
AcDbLine
 10
145.9940669999999
 20
-130.8033209999996
 30
0.0
 11
146.4857169999999
 21
-130.3116709999999
 31
0.0
  0
LINE
  5
114
330
41
100
AcDbEntity
  8
255
 62
     3
100
AcDbLine
 10
145.78011
 20
-130.791004
 30
0.0
 11
146.26011
 21
-130.3110039999999
 31
0.0
  0
LINE
  5
115
330
41
100
AcDbEntity
  8
255
 62
     3
100
AcDbLine
 10
145.553836
 20
-130.791004
 30
0.0
 11
146.033836
 21
-130.3110039999999
 31
0.0
  0
LINE
  5
116
330
41
100
AcDbEntity
  8
255
 62
     3
100
AcDbLine
 10
145.327562
 20
-130.791004
 30
0.0
 11
145.807562
 21
-130.3110039999999
 31
0.0
  0
LINE
  5
117
330
41
100
AcDbEntity
  8
255
 62
     3
100
AcDbLine
 10
145.1012879999999
 20
-130.791004
 30
0.0
 11
145.581288
 21
-130.3110039999999
 31
0.0
  0
LINE
  5
118
330
41
100
AcDbEntity
  8
255
 62
     3
100
AcDbLine
 10
144.875013
 20
-130.791004
 30
0.0
 11
145.3550129999999
 21
-130.3110039999999
 31
0.0
  0
LINE
  5
119
330
41
100
AcDbEntity
  8
255
 62
     3
100
AcDbLine
 10
144.7706879999999
 20
-130.669055
 30
0.0
 11
145.128739
 21
-130.3110039999999
 31
0.0
  0
LINE
  5
11A
330
41
100
AcDbEntity
  8
255
 62
     3
100
AcDbLine
 10
144.7706879999999
 20
-130.4427809999999
 30
0.0
 11
144.9024649999999
 21
-130.3110039999999
 31
0.0
  0
LINE
  5
11B
330
41
100
AcDbEntity
  8
255
 62
     3
100
AcDbLine
 10
152.1110769999999
 20
-133.511004
 30
0.0
 11
152.1706879999999
 21
-133.4513929999999
 31
0.0
  0
LINE
  5
11C
330
41
100
AcDbEntity
  8
255
 62
     3
100
AcDbLine
 10
151.884803
 20
-133.511004
 30
0.0
 11
152.1706879999999
 21
-133.225119
 31
0.0
  0
LINE
  5
11D
330
41
100
AcDbEntity
  8
255
 62
     3
100
AcDbLine
 10
151.658529
 20
-133.511004
 30
0.0
 11
152.1658769999999
 21
-133.003656
 31
0.0
  0
LINE
  5
11E
330
41
100
AcDbEntity
  8
255
 62
     3
100
AcDbLine
 10
151.432254
 20
-133.511004
 30
0.0
 11
152.1325159999999
 21
-132.8107429999999
 31
0.0
  0
LINE
  5
11F
330
41
100
AcDbEntity
  8
255
 62
     3
100
AcDbLine
 10
151.20598
 20
-133.511004
 30
0.0
 11
152.075164
 21
-132.6418209999999
 31
0.0
  0
LINE
  5
120
330
41
100
AcDbEntity
  8
255
 62
     3
100
AcDbLine
 10
151.130688
 20
-133.3600219999999
 30
0.0
 11
151.998711
 21
-132.4919989999999
 31
0.0
  0
LINE
  5
121
330
41
100
AcDbEntity
  8
255
 62
     3
100
AcDbLine
 10
151.130688
 20
-133.1337479999999
 30
0.0
 11
151.905654
 21
-132.358782
 31
0.0
  0
LINE
  5
122
330
41
100
AcDbEntity
  8
255
 62
     3
100
AcDbLine
 10
151.130688
 20
-132.907474
 30
0.0
 11
151.797172
 21
-132.2409899999996
 31
0.0
  0
LINE
  5
123
330
41
100
AcDbEntity
  8
255
 62
     3
100
AcDbLine
 10
151.117604
 20
-132.694284
 30
0.0
 11
151.6735219999999
 21
-132.1383659999999
 31
0.0
  0
LINE
  5
124
330
41
100
AcDbEntity
  8
255
 62
     3
100
AcDbLine
 10
151.075222
 20
-132.5103909999999
 30
0.0
 11
151.5341139999998
 21
-132.051499
 31
0.0
  0
LINE
  5
125
330
41
100
AcDbEntity
  8
255
 62
     3
100
AcDbLine
 10
151.0109209999999
 20
-132.3484179999999
 30
0.0
 11
151.377334
 21
-131.982005
 31
0.0
  0
LINE
  5
126
330
41
100
AcDbEntity
  8
255
 62
     3
100
AcDbLine
 10
151.681547
 20
-131.6777919999996
 30
0.0
 11
151.937476
 21
-131.421863
 31
0.0
  0
LINE
  5
127
330
41
100
AcDbEntity
  8
255
 62
     3
100
AcDbLine
 10
150.9285689999998
 20
-132.204496
 30
0.0
 11
151.199956
 21
-131.933109
 31
0.0
  0
LINE
  5
128
330
41
100
AcDbEntity
  8
255
 62
     3
100
AcDbLine
 10
151.256626
 20
-131.8764389999999
 30
0.0
 11
152.136123
 21
-130.9969419999999
 31
0.0
  0
LINE
  5
129
330
41
100
AcDbEntity
  8
255
 62
     3
100
AcDbLine
 10
150.755787
 20
-132.1510039999999
 30
0.0
 11
150.99553
 21
-131.9112609999999
 31
0.0
  0
LINE
  5
12A
330
41
100
AcDbEntity
  8
255
 62
     3
100
AcDbLine
 10
150.996055
 20
-131.910736
 30
0.0
 11
152.17042
 21
-130.7363709999999
 31
0.0
  0
LINE
  5
12B
330
41
100
AcDbEntity
  8
255
 62
     3
100
AcDbLine
 10
149.1695129999999
 20
-133.511004
 30
0.0
 11
149.2106879999998
 21
-133.469829
 31
0.0
  0
LINE
  5
12C
330
41
100
AcDbEntity
  8
255
 62
     3
100
AcDbLine
 10
150.5295129999999
 20
-132.1510039999999
 30
0.0
 11
152.1706879999999
 21
-130.5098289999999
 31
0.0
  0
LINE
  5
12D
330
41
100
AcDbEntity
  8
255
 62
     3
100
AcDbLine
 10
148.9432389999999
 20
-133.511004
 30
0.0
 11
149.2106879999998
 21
-133.243555
 31
0.0
  0
LINE
  5
12E
330
41
100
AcDbEntity
  8
255
 62
     3
100
AcDbLine
 10
150.3032389999999
 20
-132.1510039999999
 30
0.0
 11
150.7832389999999
 21
-131.671004
 31
0.0
  0
LINE
  5
12F
330
41
100
AcDbEntity
  8
255
 62
     3
100
AcDbLine
 10
151.035979
 20
-131.4182629999999
 30
0.0
 11
152.143239
 21
-130.3110039999999
 31
0.0
  0
LINE
  5
130
330
41
100
AcDbEntity
  8
255
 62
     3
100
AcDbLine
 10
148.7169639999999
 20
-133.511004
 30
0.0
 11
149.2106879999998
 21
-133.0172799999999
 31
0.0
  0
LINE
  5
131
330
41
100
AcDbEntity
  8
255
 62
     3
100
AcDbLine
 10
150.076964
 20
-132.1510039999999
 30
0.0
 11
150.556964
 21
-131.671004
 31
0.0
  0
LINE
  5
132
330
41
100
AcDbEntity
  8
255
 62
     3
100
AcDbLine
 10
151.120435
 20
-131.107533
 30
0.0
 11
151.9169639999998
 21
-130.3110039999999
 31
0.0
  0
LINE
  5
133
330
41
100
AcDbEntity
  8
255
 62
     3
100
AcDbLine
 10
148.49069
 20
-133.511004
 30
0.0
 11
149.2106879999998
 21
-132.791006
 31
0.0
  0
LINE
  5
134
330
41
100
AcDbEntity
  8
255
 62
     3
100
AcDbLine
 10
149.8506899999999
 20
-132.1510039999999
 30
0.0
 11
150.33069
 21
-131.671004
 31
0.0
  0
LINE
  5
135
330
41
100
AcDbEntity
  8
255
 62
     3
100
AcDbLine
 10
151.130688
 20
-130.8710059999999
 30
0.0
 11
151.6906899999999
 21
-130.3110039999999
 31
0.0
  0
LINE
  5
136
330
41
100
AcDbEntity
  8
255
 62
     3
100
AcDbLine
 10
148.2644159999999
 20
-133.511004
 30
0.0
 11
149.2106879999998
 21
-132.564732
 31
0.0
  0
LINE
  5
137
330
41
100
AcDbEntity
  8
255
 62
     3
100
AcDbLine
 10
149.624416
 20
-132.1510039999999
 30
0.0
 11
150.104416
 21
-131.671004
 31
0.0
  0
LINE
  5
138
330
41
100
AcDbEntity
  8
255
 62
     3
100
AcDbLine
 10
151.130688
 20
-130.6447319999996
 30
0.0
 11
151.464416
 21
-130.3110039999999
 31
0.0
  0
LINE
  5
139
330
41
100
AcDbEntity
  8
255
 62
     3
100
AcDbLine
 10
148.1706879999999
 20
-133.3784579999999
 30
0.0
 11
149.2106879999998
 21
-132.338458
 31
0.0
  0
LINE
  5
13A
330
41
100
AcDbEntity
  8
255
 62
     3
100
AcDbLine
 10
149.3981419999999
 20
-132.1510039999999
 30
0.0
 11
149.878142
 21
-131.671004
 31
0.0
  0
LINE
  5
13B
330
41
100
AcDbEntity
  8
255
 62
     3
100
AcDbLine
 10
151.130688
 20
-130.418458
 30
0.0
 11
151.2381419999998
 21
-130.3110039999999
 31
0.0
  0
LINE
  5
13C
330
41
100
AcDbEntity
  8
255
 62
     3
100
AcDbLine
 10
148.1706879999999
 20
-133.152184
 30
0.0
 11
149.651868
 21
-131.671004
 31
0.0
  0
LINE
  5
13D
330
41
100
AcDbEntity
  8
255
 62
     3
100
AcDbLine
 10
148.1706879999999
 20
-132.92591
 30
0.0
 11
149.425593
 21
-131.671004
 31
0.0
  0
LINE
  5
13E
330
41
100
AcDbEntity
  8
255
 62
     3
100
AcDbLine
 10
148.1706879999999
 20
-132.6996349999999
 30
0.0
 11
149.2106879999998
 21
-131.659635
 31
0.0
  0
LINE
  5
13F
330
41
100
AcDbEntity
  8
255
 62
     3
100
AcDbLine
 10
148.1706879999999
 20
-132.473361
 30
0.0
 11
149.2106879999998
 21
-131.433361
 31
0.0
  0
LINE
  5
140
330
41
100
AcDbEntity
  8
255
 62
     3
100
AcDbLine
 10
148.1706879999999
 20
-132.247087
 30
0.0
 11
149.2106879999998
 21
-131.207087
 31
0.0
  0
LINE
  5
141
330
41
100
AcDbEntity
  8
255
 62
     3
100
AcDbLine
 10
148.1706879999999
 20
-132.0208129999999
 30
0.0
 11
149.2106879999998
 21
-130.9808129999999
 31
0.0
  0
LINE
  5
142
330
41
100
AcDbEntity
  8
255
 62
     3
100
AcDbLine
 10
148.1706879999999
 20
-131.7945389999999
 30
0.0
 11
149.2106879999998
 21
-130.754539
 31
0.0
  0
LINE
  5
143
330
41
100
AcDbEntity
  8
255
 62
     3
100
AcDbLine
 10
148.1706879999999
 20
-131.568265
 30
0.0
 11
149.2106879999998
 21
-130.528265
 31
0.0
  0
LINE
  5
144
330
41
100
AcDbEntity
  8
255
 62
     3
100
AcDbLine
 10
148.1706879999999
 20
-131.3419899999999
 30
0.0
 11
149.2016739999999
 21
-130.3110039999999
 31
0.0
  0
LINE
  5
145
330
41
100
AcDbEntity
  8
255
 62
     3
100
AcDbLine
 10
148.1706879999999
 20
-131.115716
 30
0.0
 11
148.9754
 21
-130.3110039999999
 31
0.0
  0
LINE
  5
146
330
41
100
AcDbEntity
  8
255
 62
     3
100
AcDbLine
 10
148.1706879999999
 20
-130.889442
 30
0.0
 11
148.7491259999998
 21
-130.3110039999999
 31
0.0
  0
LINE
  5
147
330
41
100
AcDbEntity
  8
255
 62
     3
100
AcDbLine
 10
148.1706879999999
 20
-130.6631679999999
 30
0.0
 11
148.5228519999999
 21
-130.3110039999999
 31
0.0
  0
LINE
  5
148
330
41
100
AcDbEntity
  8
255
 62
     3
100
AcDbLine
 10
148.1706879999999
 20
-130.436894
 30
0.0
 11
148.296578
 21
-130.3110039999999
 31
0.0
  0
LINE
  5
149
330
41
100
AcDbEntity
  8
255
  6
CENTER
 62
     3
100
AcDbLine
 10
50.478409
 20
-109.4999999999999
 30
0.0
 11
33.953476
 21
-109.4999999999999
 31
0.0
  0
LINE
  5
14A
330
41
100
AcDbEntity
  8
255
  6
CENTER
 62
     3
100
AcDbLine
 10
37.578323
 20
-104.973799
 30
0.0
 11
37.578323
 21
-114.016901
 31
0.0
  0
LINE
  5
14B
330
41
100
AcDbEntity
  8
255
 62
     3
100
AcDbLine
 10
41.84416999999998
 20
-107.4999999999999
 30
0.0
 11
41.84416999999998
 21
-111.4999999999999
 31
0.0
  0
LINE
  5
14C
330
41
100
AcDbEntity
  8
255
 62
     3
100
AcDbLine
 10
49.303871
 20
-106.4999999999999
 30
0.0
 11
49.303871
 21
-112.5
 31
0.0
  0
CIRCLE
  5
14D
330
41
100
AcDbEntity
  8
255
 62
     3
100
AcDbCircle
 10
37.578323
 20
-109.4999999999999
 30
0.0
 40
2.0
  0
CIRCLE
  5
14E
330
41
100
AcDbEntity
  8
255
 62
     3
100
AcDbCircle
 10
37.578323
 20
-109.4999999999999
 30
0.0
 40
3.0
  0
LINE
  5
14F
330
41
100
AcDbEntity
  8
255
 62
     3
100
AcDbLine
 10
49.303871
 20
-106.4999999999999
 30
0.0
 11
41.84416999999998
 21
-107.4999999999999
 31
0.0
  0
LINE
  5
150
330
41
100
AcDbEntity
  8
255
 62
     3
100
AcDbLine
 10
41.84416999999998
 20
-111.4999999999999
 30
0.0
 11
49.303871
 21
-112.5
 31
0.0
  0
LINE
  5
151
330
41
100
AcDbEntity
  8
255
 62
     3
100
AcDbLine
 10
-69.5
 20
-98.0
 30
0.0
 11
-74.5
 21
-105.0
 31
0.0
  0
LINE
  5
152
330
41
100
AcDbEntity
  8
255
 62
     3
100
AcDbLine
 10
-69.5
 20
-98.0
 30
0.0
 11
-64.5
 21
-105.0
 31
0.0
  0
LINE
  5
153
330
41
100
AcDbEntity
  8
255
 62
     3
100
AcDbLine
 10
-69.5
 20
-105.0
 30
0.0
 11
-74.5
 21
-112.0
 31
0.0
  0
LINE
  5
154
330
41
100
AcDbEntity
  8
255
 62
     3
100
AcDbLine
 10
-69.5
 20
-105.0
 30
0.0
 11
-64.5
 21
-112.0
 31
0.0
  0
LINE
  5
155
330
41
100
AcDbEntity
  8
255
 62
     3
100
AcDbLine
 10
-74.5
 20
-119.0
 30
0.0
 11
-69.5
 21
-112.0
 31
0.0
  0
LINE
  5
156
330
41
100
AcDbEntity
  8
255
 62
     3
100
AcDbLine
 10
-69.5
 20
-112.0
 30
0.0
 11
-64.5
 21
-119.0
 31
0.0
  0
LINE
  5
157
330
41
100
AcDbEntity
  8
255
 62
     3
100
AcDbLine
 10
-74.5
 20
-98.0
 30
0.0
 11
-74.5
 21
-136.0
 31
0.0
  0
TEXT
  5
158
330
41
100
AcDbEntity
  8
255
 62
     3
100
AcDbText
 10
37.597158
 20
-133.735373
 30
0.0
 40
6.0
  1
mm
 41
0.833333
100
AcDbText
  0
LINE
  5
159
330
41
100
AcDbEntity
  8
255
 62
     3
100
AcDbLine
 10
51.5
 20
-104.0
 30
0.0
 11
51.5
 21
-136.0
 31
0.0
  0
LINE
  5
15A
330
41
100
AcDbEntity
  8
255
 62
     3
100
AcDbLine
 10
88.49999999999999
 20
-104.0
 30
0.0
 11
88.49999999999999
 21
-115.0
 31
0.0
  0
LINE
  5
15B
330
41
100
AcDbEntity
  8
255
 62
     3
100
AcDbLine
 10
94.50000000000001
 20
-104.0
 30
0.0
 11
94.50000000000001
 21
-115.0
 31
0.0
  0
TEXT
  5
15C
330
41
100
AcDbEntity
  8
255
 62
     3
100
AcDbText
 10
91.5
 20
-105.4999999999999
 30
0.0
 40
4.0
  1
仕上
 50
0.0000010000000028
 41
0.833333
 51
1.570796
  7
TATEGAKI
100
AcDbText
  0
LINE
  5
15D
330
41
100
AcDbEntity
  8
255
 62
     3
100
AcDbLine
 10
197.5
 20
136.0
 30
0.0
 11
197.5
 21
-136.0
 31
0.0
  0
LINE
  5
15E
330
41
100
AcDbEntity
  8
255
 62
     3
100
AcDbLine
 10
197.5
 20
-136.0
 30
0.0
 11
-197.5
 21
-136.0
 31
0.0
  0
LINE
  5
15F
330
41
100
AcDbEntity
  8
255
 62
     3
100
AcDbLine
 10
-74.5
 20
-136.0
 30
0.0
 11
197.5
 21
-136.0
 31
0.0
  0
LINE
  5
160
330
41
100
AcDbEntity
  8
255
 62
     3
100
AcDbLine
 10
197.5
 20
-136.0
 30
0.0
 11
197.5
 21
-98.0
 31
0.0
  0
ENDBLK
  5
161
330
41
100
AcDbEntity
  8
001
100
AcDbBlockEnd
  0
BLOCK
  5
163
330
162
100
AcDbEntity
  8
0
100
AcDbBlockBegin
  2
ARROW
 70
     0
 10
0.0
 20
0.0
 30
0.0
  3
ARROW
  1

  0
LWPOLYLINE
  5
164
330
162
100
AcDbEntity
  8
0
  6
Continuous
 62
     0
100
AcDbPolyline
 90
        3
 70
     0
 43
0.0
 10
2.0
 20
0.535898
 10
0.0
 20
0.0
 10
2.0
 20
-0.535898
  0
ENDBLK
  5
169
330
162
100
AcDbEntity
  8
0
100
AcDbBlockEnd
  0
BLOCK
  5
1FC
330
1FB
100
AcDbEntity
  8
001
100
AcDbBlockBegin
  2
PART1
 70
     0
 10
0.0
 20
0.0
 30
0.0
  3
PART1
  1

  0
LWPOLYLINE
  5
1FD
330
1FB
100
AcDbEntity
  8
002
 62
     2
100
AcDbPolyline
 90
        3
 70
     0
 43
0.0
 10
6.911378
 20
36.074784
 10
6.635555
 20
34.02268499999999
 10
7.900474
 20
35.661943
  0
LINE
  5
202
330
1FB
100
AcDbEntity
  8
002
 62
     2
100
AcDbLine
 10
6.635555
 20
34.02268499999999
 30
0.0
 11
30.0
 21
90.0
 31
0.0
  0
LINE
  5
203
330
1FB
100
AcDbEntity
  8
002
 62
     2
100
AcDbLine
 10
30.0
 20
90.0
 30
0.0
 11
54.75
 21
90.0
 31
0.0
  0
TEXT
  5
204
330
1FB
100
AcDbEntity
  8
002
 62
     2
100
AcDbText
 10
32.75
 20
91.0
 30
0.0
 40
3.2
  1
８－φ３．３穴
 41
0.716146
100
AcDbText
  0
ENDBLK
  5
205
330
1FB
100
AcDbEntity
  8
001
100
AcDbBlockEnd
  0
ENDSEC
  0
SECTION
  2
ENTITIES
  0
LINE
  5
214
330
1E
100
AcDbEntity
  8
001
 62
     0
100
AcDbLine
 10
53.0
 20
61.0
 30
0.0
 11
-133.0
 21
61.0
 31
0.0
  0
LINE
  5
215
330
1E
100
AcDbEntity
  8
001
 62
     0
100
AcDbLine
 10
53.0
 20
-21.0
 30
0.0
 11
-133.0
 21
-21.0
 31
0.0
  0
LINE
  5
216
330
1E
100
AcDbEntity
  8
001
 62
     0
100
AcDbLine
 10
58.0
 20
56.0
 30
0.0
 11
58.0
 21
-16.0
 31
0.0
  0
LINE
  5
217
330
1E
100
AcDbEntity
  8
001
 62
     0
100
AcDbLine
 10
-138.0
 20
-16.0
 30
0.0
 11
-138.0
 21
56.0
 31
0.0
  0
LINE
  5
218
330
1E
100
AcDbEntity
  8
001
 62
     0
100
AcDbLine
 10
1.0
 20
45.0
 30
0.0
 11
1.0
 21
-5.0
 31
0.0
  0
LINE
  5
219
330
1E
100
AcDbEntity
  8
001
 62
     0
100
AcDbLine
 10
-81.0
 20
-5.0
 30
0.0
 11
-81.0
 21
45.0
 31
0.0
  0
LINE
  5
21A
330
1E
100
AcDbEntity
  8
001
 62
     0
100
AcDbLine
 10
-4.0
 20
50.0
 30
0.0
 11
-76.0
 21
50.0
 31
0.0
  0
LINE
  5
21B
330
1E
100
AcDbEntity
  8
001
 62
     0
100
AcDbLine
 10
-4.0
 20
-10.0
 30
0.0
 11
-76.0
 21
-10.0
 31
0.0
  0
ARC
  5
21C
330
1E
100
AcDbEntity
  8
001
 62
     0
100
AcDbCircle
 10
-133.0
 20
56.0
 30
0.0
 40
5.0
100
AcDbArc
 50
90.0
 51
180.0
  0
ARC
  5
21D
330
1E
100
AcDbEntity
  8
001
 62
     0
100
AcDbCircle
 10
-133.0
 20
-16.0
 30
0.0
 40
5.0
100
AcDbArc
 50
180.0
 51
270.0
  0
ARC
  5
21E
330
1E
100
AcDbEntity
  8
001
 62
     0
100
AcDbCircle
 10
53.0
 20
-16.0
 30
0.0
 40
5.0
100
AcDbArc
 50
270.0
 51
0.0
  0
ARC
  5
21F
330
1E
100
AcDbEntity
  8
001
 62
     0
100
AcDbCircle
 10
53.0
 20
56.0
 30
0.0
 40
5.0
100
AcDbArc
 50
0.0
 51
90.0
  0
LINE
  5
220
330
1E
100
AcDbEntity
  8
001
  6
CENTER
 62
     0
100
AcDbLine
 10
-160.0
 20
20.0
 30
0.0
 11
80.0
 21
20.0
 31
0.0
  0
LINE
  5
221
330
1E
100
AcDbEntity
  8
001
  6
CENTER
 62
     0
100
AcDbLine
 10
-40.0
 20
80.0
 30
0.0
 11
-40.0
 21
-40.0
 31
0.0
  0
LINE
  5
222
330
1E
100
AcDbEntity
  8
001
 62
     0
100
AcDbLine
 10
51.0
 20
77.5
 30
0.0
 11
51.0
 21
-19.0
 31
0.0
  0
LINE
  5
223
330
1E
100
AcDbEntity
  8
001
 62
     0
100
AcDbLine
 10
56.0
 20
54.0
 30
0.0
 11
46.0
 21
54.0
 31
0.0
  0
LINE
  5
224
330
1E
100
AcDbEntity
  8
001
 62
     0
100
AcDbLine
 10
56.0
 20
-14.0
 30
0.0
 11
46.0
 21
-14.0
 31
0.0
  0
LINE
  5
225
330
1E
100
AcDbEntity
  8
001
 62
     0
100
AcDbLine
 10
-136.0
 20
54.0
 30
0.0
 11
-126.0
 21
54.0
 31
0.0
  0
LINE
  5
226
330
1E
100
AcDbEntity
  8
001
 62
     0
100
AcDbLine
 10
-131.0
 20
59.0
 30
0.0
 11
-131.0
 21
-19.0
 31
0.0
  0
LINE
  5
227
330
1E
100
AcDbEntity
  8
001
 62
     0
100
AcDbLine
 10
-136.0
 20
-14.0
 30
0.0
 11
-126.0
 21
-14.0
 31
0.0
  0
LINE
  5
228
330
1E
100
AcDbEntity
  8
001
  6
CENTER
 62
     0
100
AcDbLine
 10
1.0
 20
32.5
 30
0.0
 11
11.0
 21
32.5
 31
0.0
  0
LINE
  5
229
330
1E
100
AcDbEntity
  8
001
  6
CENTER
 62
     0
100
AcDbLine
 10
1.0
 20
7.5
 30
0.0
 11
11.0
 21
7.5
 31
0.0
  0
LINE
  5
22A
330
1E
100
AcDbEntity
  8
001
  6
CENTER
 62
     0
100
AcDbLine
 10
6.0
 20
37.5
 30
0.0
 11
6.0
 21
2.5
 31
0.0
  0
LINE
  5
22B
330
1E
100
AcDbEntity
  8
001
  6
CENTER
 62
     0
100
AcDbLine
 10
-81.0
 20
32.5
 30
0.0
 11
-91.0
 21
32.5
 31
0.0
  0
LINE
  5
22C
330
1E
100
AcDbEntity
  8
001
  6
CENTER
 62
     0
100
AcDbLine
 10
-81.0
 20
7.5
 30
0.0
 11
-91.0
 21
7.5
 31
0.0
  0
LINE
  5
22D
330
1E
100
AcDbEntity
  8
001
  6
CENTER
 62
     0
100
AcDbLine
 10
-86.0
 20
37.5
 30
0.0
 11
-86.0
 21
2.5
 31
0.0
  0
LINE
  5
22E
330
1E
100
AcDbEntity
  8
001
 62
     0
100
AcDbLine
 10
112.0
 20
54.0
 30
0.0
 11
125.0
 21
54.0
 31
0.0
  0
LINE
  5
22F
330
1E
100
AcDbEntity
  8
001
 62
     0
100
AcDbLine
 10
117.0
 20
61.0
 30
0.0
 11
117.0
 21
-21.0
 31
0.0
  0
LINE
  5
230
330
1E
100
AcDbEntity
  8
001
 62
     0
100
AcDbLine
 10
117.0
 20
61.0
 30
0.0
 11
118.5999999999999
 21
61.0
 31
0.0
  0
LINE
  5
231
330
1E
100
AcDbEntity
  8
001
 62
     0
100
AcDbLine
 10
117.0
 20
-21.0
 30
0.0
 11
118.5999999999999
 21
-21.0
 31
0.0
  0
LINE
  5
232
330
1E
100
AcDbEntity
  8
001
 62
     0
100
AcDbLine
 10
117.0
 20
-10.0
 30
0.0
 11
118.5999999999999
 21
-10.0
 31
0.0
  0
LINE
  5
233
330
1E
100
AcDbEntity
  8
001
 62
     0
100
AcDbLine
 10
117.0
 20
20.0
 30
0.0
 11
118.5999999999999
 21
20.0
 31
0.0
  0
ARC
  5
234
330
1E
100
AcDbEntity
  8
001
 62
     0
100
AcDbCircle
 10
-76.0
 20
45.0
 30
0.0
 40
5.0
100
AcDbArc
 50
90.0
 51
180.0
  0
ARC
  5
235
330
1E
100
AcDbEntity
  8
001
 62
     0
100
AcDbCircle
 10
-76.0
 20
-5.0
 30
0.0
 40
5.0
100
AcDbArc
 50
180.0
 51
270.0
  0
ARC
  5
236
330
1E
100
AcDbEntity
  8
001
 62
     0
100
AcDbCircle
 10
-4.0
 20
-5.0
 30
0.0
 40
5.0
100
AcDbArc
 50
270.0
 51
0.0
  0
ARC
  5
237
330
1E
100
AcDbEntity
  8
001
 62
     0
100
AcDbCircle
 10
-4.0
 20
45.0
 30
0.0
 40
5.0
100
AcDbArc
 50
0.0
 51
90.0
  0
LINE
  5
238
330
1E
100
AcDbEntity
  8
001
 62
     0
100
AcDbLine
 10
118.5999999999999
 20
61.0
 30
0.0
 11
118.5999999999999
 21
-21.0
 31
0.0
  0
LINE
  5
239
330
1E
100
AcDbEntity
  8
001
 62
     0
100
AcDbLine
 10
118.158615
 20
-21.0
 30
0.0
 11
118.5999999999999
 21
-20.558615
 31
0.0
  0
LINE
  5
23A
330
1E
100
AcDbEntity
  8
001
 62
     0
100
AcDbLine
 10
117.0
 20
-20.461558
 30
0.0
 11
118.5999999999999
 21
-18.861558
 31
0.0
  0
LINE
  5
23B
330
1E
100
AcDbEntity
  8
001
 62
     0
100
AcDbLine
 10
117.0
 20
-18.764502
 30
0.0
 11
118.5999999999999
 21
-17.16450199999999
 31
0.0
  0
LINE
  5
23C
330
1E
100
AcDbEntity
  8
001
 62
     0
100
AcDbLine
 10
117.0
 20
-17.067446
 30
0.0
 11
118.5999999999999
 21
-15.467446
 31
0.0
  0
LINE
  5
23D
330
1E
100
AcDbEntity
  8
001
 62
     0
100
AcDbLine
 10
117.0
 20
-15.370389
 30
0.0
 11
118.5999999999999
 21
-13.770389
 31
0.0
  0
LINE
  5
23E
330
1E
100
AcDbEntity
  8
001
 62
     0
100
AcDbLine
 10
117.0
 20
-13.673333
 30
0.0
 11
118.5999999999999
 21
-12.073333
 31
0.0
  0
LINE
  5
23F
330
1E
100
AcDbEntity
  8
001
 62
     0
100
AcDbLine
 10
117.0
 20
-11.97627699999999
 30
0.0
 11
118.5999999999999
 21
-10.376277
 31
0.0
  0
LINE
  5
240
330
1E
100
AcDbEntity
  8
001
 62
     0
100
AcDbLine
 10
117.0
 20
-10.279221
 30
0.0
 11
117.2792209999999
 21
-10.0
 31
0.0
  0
CIRCLE
  5
241
330
1E
100
AcDbEntity
  8
001
 62
     0
100
AcDbCircle
 10
6.0
 20
7.5
 30
0.0
 40
1.649999999999999
  0
CIRCLE
  5
242
330
1E
100
AcDbEntity
  8
001
 62
     0
100
AcDbCircle
 10
6.0
 20
32.5
 30
0.0
 40
1.649999999999999
  0
CIRCLE
  5
243
330
1E
100
AcDbEntity
  8
001
 62
     0
100
AcDbCircle
 10
-86.0
 20
32.5
 30
0.0
 40
1.649999999999999
  0
CIRCLE
  5
244
330
1E
100
AcDbEntity
  8
001
 62
     0
100
AcDbCircle
 10
-86.0
 20
7.5
 30
0.0
 40
1.649999999999999
  0
CIRCLE
  5
245
330
1E
100
AcDbEntity
  8
001
 62
     0
100
AcDbCircle
 10
-131.0
 20
54.0
 30
0.0
 40
1.649999999999999
  0
CIRCLE
  5
246
330
1E
100
AcDbEntity
  8
001
 62
     0
100
AcDbCircle
 10
-131.0
 20
-14.0
 30
0.0
 40
1.649999999999999
  0
CIRCLE
  5
247
330
1E
100
AcDbEntity
  8
001
 62
     0
100
AcDbCircle
 10
51.0
 20
-14.0
 30
0.0
 40
1.649999999999999
  0
CIRCLE
  5
248
330
1E
100
AcDbEntity
  8
001
 62
     0
100
AcDbCircle
 10
51.0
 20
54.0
 30
0.0
 40
1.649999999999999
  0
LINE
  5
249
330
1E
100
AcDbEntity
  8
001
 62
     0
100
AcDbLine
 10
117.0
 20
52.35
 30
0.0
 11
118.5999999999999
 21
52.35
 31
0.0
  0
LINE
  5
24A
330
1E
100
AcDbEntity
  8
001
 62
     0
100
AcDbLine
 10
117.0
 20
55.65
 30
0.0
 11
118.5999999999999
 21
55.65
 31
0.0
  0
LINE
  5
24B
330
1E
100
AcDbEntity
  8
001
 62
     0
100
AcDbLine
 10
118.441082
 20
55.65
 30
0.0
 11
118.5999999999999
 21
55.808918
 31
0.0
  0
LINE
  5
24C
330
1E
100
AcDbEntity
  8
001
 62
     0
100
AcDbLine
 10
117.0
 20
55.905974
 30
0.0
 11
118.5999999999999
 21
57.505974
 31
0.0
  0
LINE
  5
24D
330
1E
100
AcDbEntity
  8
001
 62
     0
100
AcDbLine
 10
117.0
 20
57.60303
 30
0.0
 11
118.5999999999999
 21
59.20303
 31
0.0
  0
LINE
  5
24E
330
1E
100
AcDbEntity
  8
001
 62
     0
100
AcDbLine
 10
117.0
 20
59.300087
 30
0.0
 11
118.5999999999999
 21
60.900087
 31
0.0
  0
LINE
  5
24F
330
1E
100
AcDbEntity
  8
001
 62
     0
100
AcDbLine
 10
117.0
 20
60.99714300000001
 30
0.0
 11
117.002857
 21
61.0
 31
0.0
  0
LINE
  5
250
330
1E
100
AcDbEntity
  8
001
 62
     0
100
AcDbLine
 10
118.4292639999999
 20
20.0
 30
0.0
 11
118.5999999999999
 21
20.17073599999998
 31
0.0
  0
LINE
  5
251
330
1E
100
AcDbEntity
  8
001
 62
     0
100
AcDbLine
 10
117.0
 20
20.267792
 30
0.0
 11
118.5999999999999
 21
21.867792
 31
0.0
  0
LINE
  5
252
330
1E
100
AcDbEntity
  8
001
 62
     0
100
AcDbLine
 10
117.0
 20
21.96484899999999
 30
0.0
 11
118.5999999999999
 21
23.56484899999999
 31
0.0
  0
LINE
  5
253
330
1E
100
AcDbEntity
  8
001
 62
     0
100
AcDbLine
 10
117.0
 20
23.66190499999999
 30
0.0
 11
118.5999999999999
 21
25.261905
 31
0.0
  0
LINE
  5
254
330
1E
100
AcDbEntity
  8
001
 62
     0
100
AcDbLine
 10
117.0
 20
25.35896099999999
 30
0.0
 11
118.5999999999999
 21
26.958961
 31
0.0
  0
LINE
  5
255
330
1E
100
AcDbEntity
  8
001
 62
     0
100
AcDbLine
 10
117.0
 20
27.05601699999998
 30
0.0
 11
118.5999999999999
 21
28.656017
 31
0.0
  0
LINE
  5
256
330
1E
100
AcDbEntity
  8
001
 62
     0
100
AcDbLine
 10
117.0
 20
28.753074
 30
0.0
 11
118.5999999999999
 21
30.353074
 31
0.0
  0
LINE
  5
257
330
1E
100
AcDbEntity
  8
001
 62
     0
100
AcDbLine
 10
117.0
 20
30.45012999999999
 30
0.0
 11
118.5999999999999
 21
32.05012999999999
 31
0.0
  0
LINE
  5
258
330
1E
100
AcDbEntity
  8
001
 62
     0
100
AcDbLine
 10
117.0
 20
32.14718599999999
 30
0.0
 11
118.5999999999999
 21
33.747186
 31
0.0
  0
LINE
  5
259
330
1E
100
AcDbEntity
  8
001
 62
     0
100
AcDbLine
 10
117.0
 20
33.844243
 30
0.0
 11
118.5999999999999
 21
35.444243
 31
0.0
  0
LINE
  5
25A
330
1E
100
AcDbEntity
  8
001
 62
     0
100
AcDbLine
 10
117.0
 20
35.541299
 30
0.0
 11
118.5999999999999
 21
37.14129899999999
 31
0.0
  0
LINE
  5
25B
330
1E
100
AcDbEntity
  8
001
 62
     0
100
AcDbLine
 10
117.0
 20
37.23835499999999
 30
0.0
 11
118.5999999999999
 21
38.83835499999999
 31
0.0
  0
LINE
  5
25C
330
1E
100
AcDbEntity
  8
001
 62
     0
100
AcDbLine
 10
117.0
 20
38.935411
 30
0.0
 11
118.5999999999999
 21
40.53541099999999
 31
0.0
  0
LINE
  5
25D
330
1E
100
AcDbEntity
  8
001
 62
     0
100
AcDbLine
 10
117.0
 20
40.63246799999999
 30
0.0
 11
118.5999999999999
 21
42.232468
 31
0.0
  0
LINE
  5
25E
330
1E
100
AcDbEntity
  8
001
 62
     0
100
AcDbLine
 10
117.0
 20
42.329524
 30
0.0
 11
118.5999999999999
 21
43.929524
 31
0.0
  0
LINE
  5
25F
330
1E
100
AcDbEntity
  8
001
 62
     0
100
AcDbLine
 10
117.0
 20
44.02657999999997
 30
0.0
 11
118.5999999999999
 21
45.62657999999998
 31
0.0
  0
LINE
  5
260
330
1E
100
AcDbEntity
  8
001
 62
     0
100
AcDbLine
 10
117.0
 20
45.723636
 30
0.0
 11
118.5999999999999
 21
47.323636
 31
0.0
  0
LINE
  5
261
330
1E
100
AcDbEntity
  8
001
 62
     0
100
AcDbLine
 10
117.0
 20
47.42069299999999
 30
0.0
 11
118.5999999999999
 21
49.020693
 31
0.0
  0
LINE
  5
262
330
1E
100
AcDbEntity
  8
001
 62
     0
100
AcDbLine
 10
117.0
 20
49.117749
 30
0.0
 11
118.5999999999999
 21
50.717749
 31
0.0
  0
LINE
  5
263
330
1E
100
AcDbEntity
  8
001
 62
     0
100
AcDbLine
 10
117.0
 20
50.814805
 30
0.0
 11
118.535195
 21
52.35
 31
0.0
  0
TEXT
  5
264
330
1E
100
AcDbEntity
  8
001
 62
     0
100
AcDbText
 10
142.41539
 20
-112.1653899999996
 30
0.0
 40
4.2
  1
ＴＭＫＥメンテパネル大
 41
0.833333
100
AcDbText
  0
LINE
  5
265
330
1E
100
AcDbEntity
  8
002
 62
     0
100
AcDbLine
 10
194.4893439999999
 20
126.605906
 30
0.0
 11
144.4893439999999
 21
126.605906
 31
0.0
  0
LINE
  5
266
330
1E
100
AcDbEntity
  8
002
 62
     0
100
AcDbLine
 10
194.4893439999999
 20
120.605906
 30
0.0
 11
144.4893439999999
 21
120.605906
 31
0.0
  0
LINE
  5
267
330
1E
100
AcDbEntity
  8
002
 62
     0
100
AcDbLine
 10
194.4893439999999
 20
115.605906
 30
0.0
 11
144.4893439999999
 21
115.605906
 31
0.0
  0
LINE
  5
268
330
1E
100
AcDbEntity
  8
002
 62
     0
100
AcDbLine
 10
194.4893439999999
 20
110.6059059999999
 30
0.0
 11
144.4893439999999
 21
110.6059059999999
 31
0.0
  0
LINE
  5
269
330
1E
100
AcDbEntity
  8
002
 62
     0
100
AcDbLine
 10
194.4893439999999
 20
105.605906
 30
0.0
 11
144.4893439999999
 21
105.605906
 31
0.0
  0
LINE
  5
26A
330
1E
100
AcDbEntity
  8
002
 62
     0
100
AcDbLine
 10
194.4893439999999
 20
100.605906
 30
0.0
 11
144.4893439999999
 21
100.605906
 31
0.0
  0
LINE
  5
26B
330
1E
100
AcDbEntity
  8
002
 62
     0
100
AcDbLine
 10
194.4893439999999
 20
95.60590600000001
 30
0.0
 11
144.4893439999999
 21
95.60590600000001
 31
0.0
  0
LINE
  5
26C
330
1E
100
AcDbEntity
  8
002
 62
     0
100
AcDbLine
 10
144.4893439999999
 20
132.605906
 30
0.0
 11
144.4893439999999
 21
90.60590600000001
 31
0.0
  0
LINE
  5
26D
330
1E
100
AcDbEntity
  8
002
 62
     0
100
AcDbLine
 10
174.489344
 20
126.605906
 30
0.0
 11
174.489344
 21
90.60590600000001
 31
0.0
  0
LINE
  5
26E
330
1E
100
AcDbEntity
  8
002
 62
     0
100
AcDbLine
 10
184.4893439999999
 20
126.605906
 30
0.0
 11
184.4893439999999
 21
95.60590600000001
 31
0.0
  0
LINE
  5
26F
330
1E
100
AcDbEntity
  8
002
 62
     0
100
AcDbLine
 10
194.4893439999999
 20
132.605906
 30
0.0
 11
194.4893439999999
 21
90.60590600000001
 31
0.0
  0
TEXT
  5
270
330
1E
100
AcDbEntity
  8
002
 62
     0
100
AcDbText
 10
150.489344
 20
121.1059059999999
 30
0.0
 40
5.0
  1
寸法区分
 41
0.75
100
AcDbText
  0
TEXT
  5
271
330
1E
100
AcDbEntity
  8
002
 62
     0
100
AcDbText
 10
165.4893439999999
 20
116.605906
 30
0.0
 40
3.0
  1
３０以下
 41
0.5555560000000001
100
AcDbText
  0
TEXT
  5
272
330
1E
100
AcDbEntity
  8
002
 62
     0
100
AcDbText
 10
144.9893439999998
 20
111.6059059999999
 30
0.0
 40
3.0
  1
３０を超え
 41
0.5555560000000001
100
AcDbText
  0
TEXT
  5
273
330
1E
100
AcDbEntity
  8
002
 62
     0
100
AcDbText
 10
144.9893439999998
 20
106.605906
 30
0.0
 40
3.0
  1
１２０を超え
 41
0.5555560000000001
100
AcDbText
  0
TEXT
  5
274
330
1E
100
AcDbEntity
  8
002
 62
     0
100
AcDbText
 10
144.9893439999998
 20
101.605906
 30
0.0
 40
3.0
  1
３１５を超え
 41
0.5555560000000001
100
AcDbText
  0
TEXT
  5
275
330
1E
100
AcDbEntity
  8
002
 62
     0
100
AcDbText
 10
144.9893439999998
 20
96.605906
 30
0.0
 40
3.0
  1
１０００を超え
 41
0.5555560000000001
100
AcDbText
  0
TEXT
  5
276
330
1E
100
AcDbEntity
  8
002
 62
     0
100
AcDbText
 10
163.4893439999999
 20
111.6059059999999
 30
0.0
 40
3.0
  1
１２０以下
 41
0.5555560000000001
100
AcDbText
  0
TEXT
  5
277
330
1E
100
AcDbEntity
  8
002
 62
     0
100
AcDbText
 10
163.4893439999999
 20
106.605906
 30
0.0
 40
3.0
  1
３１５以下
 41
0.5555560000000001
100
AcDbText
  0
TEXT
  5
278
330
1E
100
AcDbEntity
  8
002
 62
     0
100
AcDbText
 10
161.4893439999999
 20
101.605906
 30
0.0
 40
3.0
  1
１０００以下
 41
0.5555560000000001
100
AcDbText
  0
TEXT
  5
279
330
1E
100
AcDbEntity
  8
002
 62
     0
100
AcDbText
 10
161.4893439999999
 20
96.605906
 30
0.0
 40
3.0
  1
２０００以下
 41
0.5555560000000001
100
AcDbText
  0
TEXT
  5
27A
330
1E
100
AcDbEntity
  8
002
 62
     0
100
AcDbText
 10
177.7330129999999
 20
127.155856
 30
0.0
 40
5.0
  1
( )
 41
2.180768
100
AcDbText
  0
LINE
  5
27B
330
1E
100
AcDbEntity
  8
002
 62
     0
100
AcDbLine
 10
187.698584
 20
130.8354519999999
 30
0.0
 11
185.525826
 21
130.8354519999999
 31
0.0
  0
LINE
  5
27C
330
1E
100
AcDbEntity
  8
002
 62
     0
100
AcDbLine
 10
187.8873199999999
 20
128.475108
 30
0.0
 11
185.349749
 21
128.475108
 31
0.0
  0
LINE
  5
27D
330
1E
100
AcDbEntity
  8
002
 62
     0
100
AcDbLine
 10
186.6685939999999
 20
131.865443
 30
0.0
 11
186.6685939999999
 21
129.768637
 31
0.0
  0
TEXT
  5
27E
330
1E
100
AcDbEntity
  8
002
 62
     0
100
AcDbText
 10
175.2393439999999
 20
116.605906
 30
0.0
 40
3.0
  1
0.15
 41
0.941177
100
AcDbText
  0
TEXT
  5
27F
330
1E
100
AcDbEntity
  8
002
 62
     0
100
AcDbText
 10
175.2393439999999
 20
111.6059059999999
 30
0.0
 40
3.0
  1
0.25
 41
0.8421049999999999
100
AcDbText
  0
TEXT
  5
280
330
1E
100
AcDbEntity
  8
002
 62
     0
100
AcDbText
 10
176.2393439999999
 20
106.605906
 30
0.0
 40
3.0
  1
0.4
 41
0.9230769999999999
100
AcDbText
  0
TEXT
  5
281
330
1E
100
AcDbEntity
  8
002
 62
     0
100
AcDbText
 10
176.2393439999999
 20
101.605906
 30
0.0
 40
3.0
  1
0.7
 41
0.9230769999999999
100
AcDbText
  0
TEXT
  5
282
330
1E
100
AcDbEntity
  8
002
 62
     0
100
AcDbText
 10
176.2393439999999
 20
96.605906
 30
0.0
 40
3.0
  1
1.1
 41
1.199999999999999
100
AcDbText
  0
TEXT
  5
283
330
1E
100
AcDbEntity
  8
002
 62
     0
100
AcDbText
 10
185.2393439999999
 20
116.605906
 30
0.0
 40
3.0
  1
0.25
 41
0.8421049999999999
100
AcDbText
  0
TEXT
  5
284
330
1E
100
AcDbEntity
  8
002
 62
     0
100
AcDbText
 10
185.2393439999999
 20
111.6059059999999
 30
0.0
 40
3.0
  1
0.45
 41
0.8421049999999999
100
AcDbText
  0
TEXT
  5
285
330
1E
100
AcDbEntity
  8
002
 62
     0
100
AcDbText
 10
186.2393439999999
 20
106.605906
 30
0.0
 40
3.0
  1
0.6
 41
0.9230769999999999
100
AcDbText
  0
TEXT
  5
286
330
1E
100
AcDbEntity
  8
002
 62
     0
100
AcDbText
 10
186.2393439999999
 20
101.605906
 30
0.0
 40
3.0
  1
1.1
 41
1.199999999999999
100
AcDbText
  0
TEXT
  5
287
330
1E
100
AcDbEntity
  8
002
 62
     0
100
AcDbText
 10
186.2393439999999
 20
96.605906
 30
0.0
 40
3.0
  1
1.8
100
AcDbText
  0
LINE
  5
288
330
1E
100
AcDbEntity
  8
002
 62
     0
100
AcDbLine
 10
194.4893439999999
 20
90.60590600000001
 30
0.0
 11
144.4893439999999
 21
90.60590600000001
 31
0.0
  0
TEXT
  5
289
330
1E
100
AcDbEntity
  8
002
 62
     0
100
AcDbText
 10
156.2393439999999
 20
91.605906
 30
0.0
 40
3.0
  1
角度
 41
1.111110999999997
100
AcDbText
  0
TEXT
  5
28A
330
1E
100
AcDbEntity
  8
002
 62
     0
100
AcDbText
 10
181.2393439999999
 20
91.605906
 30
0.0
 40
3.0
  1
１度
 41
1.111110999999997
100
AcDbText
  0
TEXT
  5
28B
330
1E
100
AcDbEntity
  8
002
 62
     0
100
AcDbText
 10
175.489344
 20
121.1059059999999
 30
0.0
 40
5.0
  1
Ｂ級
 41
0.666667
100
AcDbText
  0
TEXT
  5
28C
330
1E
100
AcDbEntity
  8
002
 62
     0
100
AcDbText
 10
185.4893439999999
 20
121.1059059999999
 30
0.0
 40
5.0
  1
Ｃ級
 41
0.666667
100
AcDbText
  0
LINE
  5
28D
330
1E
100
AcDbEntity
  8
002
 62
     0
100
AcDbLine
 10
194.4893439999999
 20
126.605906
 30
0.0
 11
194.4893439999999
 21
95.60590600000001
 31
0.0
  0
LINE
  5
28E
330
1E
100
AcDbEntity
  8
002
 62
     0
100
AcDbLine
 10
194.4893439999999
 20
126.605906
 30
0.0
 11
184.4893439999999
 21
95.60590600000001
 31
0.0
  0
LINE
  5
28F
330
1E
100
AcDbEntity
  8
002
 62
     0
100
AcDbLine
 10
194.4893439999999
 20
132.605906
 30
0.0
 11
144.4893439999999
 21
132.605906
 31
0.0
  0
TEXT
  5
290
330
1E
100
AcDbEntity
  8
002
 62
     0
100
AcDbText
 10
144.9893439999998
 20
127.105906
 30
0.0
 40
5.0
  1
プレス一般寸法公差
 41
0.666667
100
AcDbText
  0
LINE
  5
296
330
1E
100
AcDbEntity
  8
002
 62
     0
100
AcDbLine
 10
45.0
 20
80.0
 30
0.0
 11
51.0
 21
80.0
 31
0.0
  0
LINE
  5
29C
330
1E
100
AcDbEntity
  8
002
 62
     0
100
AcDbLine
 10
-46.0
 20
-40.0
 30
0.0
 11
-40.0
 21
-40.0
 31
0.0
  0
LINE
  5
29D
330
1E
100
AcDbEntity
  8
002
 62
     0
100
AcDbLine
 10
48.5
 20
80.0
 30
0.0
 11
51.0
 21
80.0
 31
0.0
  0
LINE
  5
29E
330
1E
100
AcDbEntity
  8
002
 62
     0
100
AcDbLine
 10
51.0
 20
80.0
 30
0.0
 11
51.0
 21
77.5
 31
0.0
  0
LINE
  5
29F
330
1E
100
AcDbEntity
  8
002
 62
     0
100
AcDbLine
 10
-40.0
 20
-40.0
 30
0.0
 11
-40.0
 21
-37.5
 31
0.0
  0
LINE
  5
2A0
330
1E
100
AcDbEntity
  8
002
 62
     0
100
AcDbLine
 10
-42.5
 20
-40.0
 30
0.0
 11
-40.0
 21
-40.0
 31
0.0
  0
TEXT
  5
2A1
330
1E
100
AcDbEntity
  8
002
 62
     0
100
AcDbText
 10
52.0
 20
78.15999999999998
 30
0.0
 40
3.839999999999998
  1
A
 41
0.859375
100
AcDbText
  0
TEXT
  5
2A2
330
1E
100
AcDbEntity
  8
002
 62
     0
100
AcDbText
 10
-39.0
 20
-42.0
 30
0.0
 40
3.839999999999998
  1
Ａ′
 41
0.716146
100
AcDbText
  0
LINE
  5
2A3
330
1E
100
AcDbEntity
  8
002
 62
     0
100
AcDbLine
 10
-40.0
 20
20.0
 30
0.0
 11
-40.0
 21
17.5
 31
0.0
  0
LINE
  5
2A4
330
1E
100
AcDbEntity
  8
002
 62
     0
100
AcDbLine
 10
-37.5
 20
20.0
 30
0.0
 11
-40.0
 21
20.0
 31
0.0
  0
LINE
  5
2A5
330
1E
100
AcDbEntity
  8
002
 62
     0
100
AcDbLine
 10
51.0
 20
20.0
 30
0.0
 11
51.0
 21
22.5
 31
0.0
  0
LINE
  5
2A6
330
1E
100
AcDbEntity
  8
002
 62
     0
100
AcDbLine
 10
48.5
 20
20.0
 30
0.0
 11
51.0
 21
20.0
 31
0.0
  0
LINE
  5
2A7
330
1E
100
AcDbEntity
  8
002
 62
     0
100
AcDbLine
 10
109.0999999999999
 20
-60.0
 30
0.0
 11
130.9
 21
-60.0
 31
0.0
  0
TEXT
  5
2A8
330
1E
100
AcDbEntity
  8
002
 62
     0
100
AcDbText
 10
110.0999999999999
 20
-59.0
 30
0.0
 40
3.839999999999998
  1
Ａ～Ａ′断面
 41
0.716146
100
AcDbText
  0
LINE
  5
2AE
330
1E
100
AcDbEntity
  8
002
 62
     0
100
AcDbLine
 10
117.0
 20
-21.0
 30
0.0
 11
105.0
 21
-40.0
 31
0.0
  0
LINE
  5
2AF
330
1E
100
AcDbEntity
  8
002
 62
     0
100
AcDbLine
 10
105.0
 20
-40.0
 30
0.0
 11
72.0
 21
-40.0
 31
0.0
  0
TEXT
  5
2B0
330
1E
100
AcDbEntity
  8
002
 62
     0
100
AcDbText
 10
74.75
 20
-39.0
 30
0.0
 40
3.2
  1
バリなきこと（全周）
 41
0.716146
100
AcDbText
  0
LINE
  5
2B6
330
1E
100
AcDbEntity
  8
002
 62
     0
100
AcDbLine
 10
-110.0
 20
61.0
 30
0.0
 11
-130.0
 21
90.0
 31
0.0
  0
LINE
  5
2B7
330
1E
100
AcDbEntity
  8
002
 62
     0
100
AcDbLine
 10
-130.0
 20
90.0
 30
0.0
 11
-163.0
 21
90.0
 31
0.0
  0
TEXT
  5
2B8
330
1E
100
AcDbEntity
  8
002
 62
     0
100
AcDbText
 10
-160.25
 20
91.0
 30
0.0
 40
3.2
  1
送り抜きあとなきこと
 41
0.716146
100
AcDbText
  0
LINE
  5
2BE
330
1E
100
AcDbEntity
  8
002
 62
     0
100
AcDbLine
 10
118.5999999999999
 20
-21.0
 30
0.0
 11
105.0
 21
-40.0
 31
0.0
  0
TEXT
  5
2BF
330
1E
100
AcDbEntity
  8
255
 62
     0
100
AcDbText
 10
36.25
 20
-122.75
 30
0.0
 40
4.5
  1
1/1
 41
1.142857
100
AcDbText
  0
TEXT
  5
2C0
330
1E
100
AcDbEntity
  8
255
 62
     0
100
AcDbText
 10
-62.9
 20
-132.5749999999999
 30
0.0
 40
3.149999999999999
  1
ＳＰＨ－１０１Ｓ／２０１Ｓ　他
 41
0.833333
100
AcDbText
  0
TEXT
  5
2C1
330
1E
100
AcDbEntity
  8
255
 62
     0
100
AcDbText
 10
60.25
 20
-108.3499999999999
 30
0.0
 40
3.2
  1
SECC
100
AcDbText
  0
TEXT
  5
2C2
330
1E
100
AcDbEntity
  8
255
 62
     0
100
AcDbText
 10
60.25
 20
-113.85
 30
0.0
 40
3.2
  1
1.6t
 41
1.333333
100
AcDbText
  0
TEXT
  5
2C3
330
1E
100
AcDbEntity
  8
255
 62
     0
100
AcDbText
 10
97.25000000000001
 20
-113.85
 30
0.0
 40
3.2
  1
色：黒（半ツヤ）
 41
0.833333
100
AcDbText
  0
TEXT
  5
2C4
330
1E
100
AcDbEntity
  8
255
 62
     0
100
AcDbText
 10
97.25000000000001
 20
-108.3499999999999
 30
0.0
 40
3.2
  1
塗装
 41
0.833333
100
AcDbText
  0
TEXT
  5
2C5
330
1E
100
AcDbEntity
  8
255
 62
     0
100
AcDbText
 10
137.2902719999999
 20
-123.65
 30
0.0
 40
6.299999999999998
  1
D-0070-05
 41
1.08
100
AcDbText
  0
TEXT
  5
2C6
330
1E
100
AcDbEntity
  8
255
 62
     0
100
AcDbText
 10
203.1
 20
98.925
 30
0.0
 40
3.2
  1
D-0070-05
 50
90.00000300000001
 41
1.08
100
AcDbText
  0
LINE
  5
2C9
330
1E
100
AcDbEntity
  8
255
 62
     0
100
AcDbLine
 10
-197.5
 20
-136.0
 30
0.0
 11
-197.5
 21
136.0
 31
0.0
  0
TEXT
  5
2CA
330
1E
100
AcDbEntity
  8
255
 62
     0
100
AcDbText
 10
203.6999999999999
 20
77.0
 30
0.0
 40
4.0
  1
図番
 50
90.00000300000001
 41
0.833333
100
AcDbText
  0
LINE
  5
2CB
330
1E
100
AcDbEntity
  8
255
 62
     0
100
AcDbLine
 10
205.5
 20
136.0
 30
0.0
 11
205.5
 21
75.0
 31
0.0
  0
LINE
  5
2CC
330
1E
100
AcDbEntity
  8
255
 62
     0
100
AcDbLine
 10
197.5
 20
87.0
 30
0.0
 11
205.5
 21
87.0
 31
0.0
  0
LINE
  5
2CD
330
1E
100
AcDbEntity
  8
255
 62
     0
100
AcDbLine
 10
205.5
 20
75.0
 30
0.0
 11
197.5
 21
75.0
 31
0.0
  0
LINE
  5
2CE
330
1E
100
AcDbEntity
  8
255
 62
     0
100
AcDbLine
 10
197.5
 20
136.0
 30
0.0
 11
205.5
 21
136.0
 31
0.0
  0
TEXT
  5
2CF
330
1E
100
AcDbEntity
  8
255
 62
     0
100
AcDbText
 10
184.15
 20
136.85
 30
0.0
 40
6.299999999999998
  1
A3
100
AcDbText
  0
LINE
  5
2D0
330
1E
100
AcDbEntity
  8
255
 62
     0
100
AcDbLine
 10
197.5
 20
144.0
 30
0.0
 11
197.5
 21
136.0
 31
0.0
  0
LINE
  5
2D1
330
1E
100
AcDbEntity
  8
255
 62
     0
100
AcDbLine
 10
197.5
 20
144.0
 30
0.0
 11
182.5
 21
144.0
 31
0.0
  0
LINE
  5
2D2
330
1E
100
AcDbEntity
  8
255
 62
     0
100
AcDbLine
 10
182.5
 20
144.0
 30
0.0
 11
182.5
 21
136.0
 31
0.0
  0
LINE
  5
2D3
330
1E
100
AcDbEntity
  8
255
 62
     0
100
AcDbLine
 10
-137.5
 20
144.0
 30
0.0
 11
-137.5
 21
136.0
 31
0.0
  0
LINE
  5
2D4
330
1E
100
AcDbEntity
  8
255
 62
     0
100
AcDbLine
 10
-137.5
 20
144.0
 30
0.0
 11
-197.5
 21
144.0
 31
0.0
  0
LINE
  5
2D5
330
1E
100
AcDbEntity
  8
255
 62
     0
100
AcDbLine
 10
-152.5
 20
144.0
 30
0.0
 11
-152.5
 21
136.0
 31
0.0
  0
LINE
  5
2D6
330
1E
100
AcDbEntity
  8
255
 62
     0
100
AcDbLine
 10
-167.5
 20
144.0
 30
0.0
 11
-167.5
 21
136.0
 31
0.0
  0
LINE
  5
2D7
330
1E
100
AcDbEntity
  8
255
 62
     0
100
AcDbLine
 10
-182.5
 20
144.0
 30
0.0
 11
-182.5
 21
136.0
 31
0.0
  0
LINE
  5
2D8
330
1E
100
AcDbEntity
  8
255
 62
     0
100
AcDbLine
 10
-197.5
 20
136.0
 30
0.0
 11
-197.5
 21
144.0
 31
0.0
  0
LINE
  5
2D9
330
1E
100
AcDbEntity
  8
255
 62
     0
100
AcDbLine
 10
197.5
 20
136.0
 30
0.0
 11
-197.5
 21
136.0
 31
0.0
  0
TEXT
  5
2DA
330
1E
100
AcDbEntity
  8
255
 62
     0
100
AcDbText
 10
180.9
 20
-103.0999999999999
 30
0.0
 40
4.0
  1
備考
 41
0.833333
100
AcDbText
  0
TEXT
  5
2DB
330
1E
100
AcDbEntity
  8
255
 62
     0
100
AcDbText
 10
126.9
 20
-102.9
 30
0.0
 40
4.0
  1
個数
 41
0.833333
100
AcDbText
  0
TEXT
  5
2DC
330
1E
100
AcDbEntity
  8
255
 62
     0
100
AcDbText
 10
76.90000000000002
 20
-102.9
 30
0.0
 40
4.0
  1
品名
 41
0.833333
100
AcDbText
  0
TEXT
  5
2DD
330
1E
100
AcDbEntity
  8
255
 62
     0
100
AcDbText
 10
40.89999999999998
 20
-102.9
 30
0.0
 40
4.0
  1
図番
 41
0.833333
100
AcDbText
  0
TEXT
  5
2DE
330
1E
100
AcDbEntity
  8
255
 62
     0
100
AcDbText
 10
29.5
 20
-102.9
 30
0.0
 40
4.0
  1
部番
 41
0.833333
100
AcDbText
  0
TEXT
  5
2DF
330
1E
100
AcDbEntity
  8
255
 62
     0
100
AcDbText
 10
-73.09999999999998
 20
-124.5
 30
0.0
 40
4.0
  1
記号
 41
0.833333
100
AcDbText
  0
TEXT
  5
2E0
330
1E
100
AcDbEntity
  8
255
 62
     0
100
AcDbText
 10
-13.1
 20
-124.5
 30
0.0
 40
4.0
  1
年月日
 41
0.833333
100
AcDbText
  0
TEXT
  5
2E1
330
1E
100
AcDbEntity
  8
255
 62
     0
100
AcDbText
 10
2.5
 20
-124.5
 30
0.0
 40
4.0
  1
氏名
 41
0.833333
100
AcDbText
  0
TEXT
  5
2E2
330
1E
100
AcDbEntity
  8
255
 62
     0
100
AcDbText
 10
16.3
 20
-124.5
 30
0.0
 40
4.0
  1
承認
 41
0.833333
100
AcDbText
  0
TEXT
  5
2E3
330
1E
100
AcDbEntity
  8
255
 62
     0
100
AcDbText
 10
128.4999999999999
 20
-105.4999999999999
 30
0.0
 40
4.0
  1
図名
 50
0.0000010000000028
 41
0.833333
 51
1.570796
  7
TATEGAKI
100
AcDbText
  0
TEXT
  5
2E4
330
1E
100
AcDbEntity
  8
255
 62
     0
100
AcDbText
 10
128.4999999999999
 20
-116.5
 30
0.0
 40
4.0
  1
図番
 50
0.0000010000000028
 41
0.833333
 51
1.570796
  7
TATEGAKI
100
AcDbText
  0
TEXT
  5
2E5
330
1E
100
AcDbEntity
  8
255
 62
     0
100
AcDbText
 10
104.4999999999999
 20
-121.5
 30
0.0
 40
4.0
  1
設計
 50
0.0000010000000028
 41
0.833333
 51
1.570796
  7
TATEGAKI
100
AcDbText
  0
TEXT
  5
2E6
330
1E
100
AcDbEntity
  8
255
 62
     0
100
AcDbText
 10
78.5
 20
-121.5
 30
0.0
 40
4.0
  1
検図
 50
0.0000010000000028
 41
0.833333
 51
1.570796
  7
TATEGAKI
100
AcDbText
  0
TEXT
  5
2E7
330
1E
100
AcDbEntity
  8
255
 62
     0
100
AcDbText
 10
54.5
 20
-105.4999999999999
 30
0.0
 40
4.0
  1
材質
 50
0.0000010000000028
 41
0.833333
 51
1.570796
  7
TATEGAKI
100
AcDbText
  0
TEXT
  5
2E8
330
1E
100
AcDbEntity
  8
255
 62
     0
100
AcDbText
 10
54.5
 20
-121.5
 30
0.0
 40
4.0
  1
承認
 50
0.0000010000000028
 41
0.833333
 51
1.570796
  7
TATEGAKI
100
AcDbText
  0
TEXT
  5
2E9
330
1E
100
AcDbEntity
  8
255
 62
     0
100
AcDbText
 10
30.5
 20
-105.4999999999999
 30
0.0
 40
4.0
  1
図法
 50
0.0000010000000028
 41
0.833333
 51
1.570796
  7
TATEGAKI
100
AcDbText
  0
TEXT
  5
2EA
330
1E
100
AcDbEntity
  8
255
 62
     0
100
AcDbText
 10
30.5
 20
-116.5
 30
0.0
 40
4.0
  1
尺度
 50
0.0000010000000028
 41
0.833333
 51
1.570796
  7
TATEGAKI
100
AcDbText
  0
TEXT
  5
2EB
330
1E
100
AcDbEntity
  8
255
 62
     0
100
AcDbText
 10
30.5
 20
-127.0
 30
0.0
 40
4.0
  1
単位
 50
0.0000010000000028
 41
0.833333
 51
1.570796
  7
TATEGAKI
100
AcDbText
  0
TEXT
  5
2EC
330
1E
100
AcDbEntity
  8
255
 62
     0
100
AcDbText
 10
-11.5
 20
-126.5
 30
0.0
 40
3.0
  1
許容差
 50
0.0000010000000028
 41
0.833333
 51
1.570796
  7
TATEGAKI
100
AcDbText
  0
TEXT
  5
2ED
330
1E
100
AcDbEntity
  8
255
 62
     0
100
AcDbText
 10
-69.5
 20
-126.5
 30
0.0
 40
3.0
  1
製品名
 50
0.0000010000000028
 41
0.833333
 51
1.570796
  7
TATEGAKI
100
AcDbText
  0
TEXT
  5
2EE
330
1E
100
AcDbEntity
  8
255
 62
     0
100
AcDbText
 10
-47.7
 20
-124.5
 30
0.0
 40
4.0
  1
変更記事
 41
0.833333
100
AcDbText
  0
TEXT
  5
2EF
330
1E
100
AcDbEntity
  8
255
 62
     0
100
AcDbText
 10
162.9
 20
-102.9
 30
0.0
 40
4.0
  1
寸法
 41
0.833333
100
AcDbText
  0
TEXT
  5
2F0
330
1E
100
AcDbEntity
  8
255
 62
     0
100
AcDbText
 10
144.9
 20
-102.9
 30
0.0
 40
4.0
  1
材質
 41
0.833333
100
AcDbText
  0
LINE
  5
2F1
330
1E
100
AcDbEntity
  8
255
 62
     0
100
AcDbLine
 10
-74.5
 20
-98.0
 30
0.0
 11
197.5
 21
-98.0
 31
0.0
  0
LINE
  5
2F2
330
1E
100
AcDbEntity
  8
255
 62
     0
100
AcDbLine
 10
-74.5
 20
-136.0
 30
0.0
 11
197.5
 21
-136.0
 31
0.0
  0
LINE
  5
2F3
330
1E
100
AcDbEntity
  8
255
 62
     0
100
AcDbLine
 10
197.5
 20
-126.0
 30
0.0
 11
107.4999999999999
 21
-126.0
 31
0.0
  0
LINE
  5
2F4
330
1E
100
AcDbEntity
  8
255
 62
     0
100
AcDbLine
 10
125.5
 20
-98.0
 30
0.0
 11
125.5
 21
-136.0
 31
0.0
  0
LINE
  5
2F5
330
1E
100
AcDbEntity
  8
255
 62
     0
100
AcDbLine
 10
131.4999999999999
 20
-104.0
 30
0.0
 11
131.4999999999999
 21
-126.0
 31
0.0
  0
LINE
  5
2F6
330
1E
100
AcDbEntity
  8
255
 62
     0
100
AcDbLine
 10
143.5
 20
-98.0
 30
0.0
 11
143.5
 21
-104.0
 31
0.0
  0
LINE
  5
2F7
330
1E
100
AcDbEntity
  8
255
 62
     0
100
AcDbLine
 10
161.5
 20
-98.0
 30
0.0
 11
161.5
 21
-104.0
 31
0.0
  0
LINE
  5
2F8
330
1E
100
AcDbEntity
  8
255
 62
     0
100
AcDbLine
 10
179.4999999999999
 20
-98.0
 30
0.0
 11
179.4999999999999
 21
-104.0
 31
0.0
  0
LINE
  5
2F9
330
1E
100
AcDbEntity
  8
255
 62
     0
100
AcDbLine
 10
197.5
 20
-136.0
 30
0.0
 11
197.5
 21
-98.0
 31
0.0
  0
LINE
  5
2FA
330
1E
100
AcDbEntity
  8
255
 62
     0
100
AcDbLine
 10
107.4999999999999
 20
-115.0
 30
0.0
 11
107.4999999999999
 21
-136.0
 31
0.0
  0
LINE
  5
2FB
330
1E
100
AcDbEntity
  8
255
 62
     0
100
AcDbLine
 10
197.5
 20
-115.0
 30
0.0
 11
27.5
 21
-115.0
 31
0.0
  0
LINE
  5
2FC
330
1E
100
AcDbEntity
  8
255
 62
     0
100
AcDbLine
 10
101.5
 20
-115.0
 30
0.0
 11
101.5
 21
-136.0
 31
0.0
  0
LINE
  5
2FD
330
1E
100
AcDbEntity
  8
255
 62
     0
100
AcDbLine
 10
101.5
 20
-126.0
 30
0.0
 11
81.5
 21
-126.0
 31
0.0
  0
LINE
  5
2FE
330
1E
100
AcDbEntity
  8
255
 62
     0
100
AcDbLine
 10
81.5
 20
-115.0
 30
0.0
 11
81.5
 21
-136.0
 31
0.0
  0
LINE
  5
2FF
330
1E
100
AcDbEntity
  8
255
 62
     0
100
AcDbLine
 10
75.5
 20
-115.0
 30
0.0
 11
75.5
 21
-136.0
 31
0.0
  0
LINE
  5
300
330
1E
100
AcDbEntity
  8
255
 62
     0
100
AcDbLine
 10
75.5
 20
-126.0
 30
0.0
 11
57.5
 21
-126.0
 31
0.0
  0
LINE
  5
301
330
1E
100
AcDbEntity
  8
255
 62
     0
100
AcDbLine
 10
57.5
 20
-104.0
 30
0.0
 11
57.5
 21
-136.0
 31
0.0
  0
LINE
  5
302
330
1E
100
AcDbEntity
  8
255
 62
     0
100
AcDbLine
 10
51.5
 20
-104.0
 30
0.0
 11
51.5
 21
-136.0
 31
0.0
  0
LINE
  5
303
330
1E
100
AcDbEntity
  8
255
 62
     0
100
AcDbLine
 10
27.5
 20
-126.0
 30
0.0
 11
51.5
 21
-126.0
 31
0.0
  0
LINE
  5
304
330
1E
100
AcDbEntity
  8
255
 62
     0
100
AcDbLine
 10
33.5
 20
-104.0
 30
0.0
 11
33.5
 21
-136.0
 31
0.0
  0
LINE
  5
305
330
1E
100
AcDbEntity
  8
255
 62
     0
100
AcDbLine
 10
197.5
 20
-104.0
 30
0.0
 11
27.5
 21
-104.0
 31
0.0
  0
LINE
  5
306
330
1E
100
AcDbEntity
  8
255
 62
     0
100
AcDbLine
 10
39.5
 20
-98.0
 30
0.0
 11
39.5
 21
-104.0
 31
0.0
  0
LINE
  5
307
330
1E
100
AcDbEntity
  8
255
 62
     0
100
AcDbLine
 10
75.5
 20
-98.0
 30
0.0
 11
75.5
 21
-104.0
 31
0.0
  0
LINE
  5
308
330
1E
100
AcDbEntity
  8
255
 62
     0
100
AcDbLine
 10
27.5
 20
-105.0
 30
0.0
 11
-74.5
 21
-105.0
 31
0.0
  0
LINE
  5
309
330
1E
100
AcDbEntity
  8
255
 62
     0
100
AcDbLine
 10
13.5
 20
-98.0
 30
0.0
 11
13.5
 21
-126.0
 31
0.0
  0
LINE
  5
30A
330
1E
100
AcDbEntity
  8
255
 62
     0
100
AcDbLine
 10
-0.5
 20
-98.0
 30
0.0
 11
-0.5
 21
-126.0
 31
0.0
  0
LINE
  5
30B
330
1E
100
AcDbEntity
  8
255
 62
     0
100
AcDbLine
 10
27.5
 20
-112.0
 30
0.0
 11
-74.5
 21
-112.0
 31
0.0
  0
LINE
  5
30C
330
1E
100
AcDbEntity
  8
255
 62
     0
100
AcDbLine
 10
-64.5
 20
-98.0
 30
0.0
 11
-64.5
 21
-136.0
 31
0.0
  0
LINE
  5
30D
330
1E
100
AcDbEntity
  8
255
 62
     0
100
AcDbLine
 10
-14.5
 20
-98.0
 30
0.0
 11
-14.5
 21
-136.0
 31
0.0
  0
LINE
  5
30E
330
1E
100
AcDbEntity
  8
255
 62
     0
100
AcDbLine
 10
27.5
 20
-119.0
 30
0.0
 11
-74.5
 21
-119.0
 31
0.0
  0
LINE
  5
30F
330
1E
100
AcDbEntity
  8
255
 62
     0
100
AcDbLine
 10
27.5
 20
-126.0
 30
0.0
 11
-74.5
 21
-126.0
 31
0.0
  0
LINE
  5
310
330
1E
100
AcDbEntity
  8
255
 62
     0
100
AcDbLine
 10
-8.5
 20
-126.0
 30
0.0
 11
-8.5
 21
-136.0
 31
0.0
  0
LINE
  5
311
330
1E
100
AcDbEntity
  8
255
 62
     0
100
AcDbLine
 10
27.5
 20
-98.0
 30
0.0
 11
27.5
 21
-136.0
 31
0.0
  0
LINE
  5
312
330
1E
100
AcDbEntity
  8
255
 62
     0
100
AcDbLine
 10
141.650688
 20
-133.511004
 30
0.0
 11
138.5706879999996
 21
-133.511004
 31
0.0
  0
LINE
  5
313
330
1E
100
AcDbEntity
  8
255
 62
     0
100
AcDbLine
 10
147.3706879999999
 20
-131.231004
 30
0.0
 11
147.3706879999999
 21
-133.511004
 31
0.0
  0
LINE
  5
314
330
1E
100
AcDbEntity
  8
255
 62
     0
100
AcDbLine
 10
148.1706879999999
 20
-133.511004
 30
0.0
 11
148.1706879999999
 21
-130.3110039999999
 31
0.0
  0
LINE
  5
315
330
1E
100
AcDbEntity
  8
255
 62
     0
100
AcDbLine
 10
144.4106879999999
 20
-130.3110039999999
 30
0.0
 11
144.4106879999999
 21
-133.511004
 31
0.0
  0
LINE
  5
316
330
1E
100
AcDbEntity
  8
255
 62
     0
100
AcDbLine
 10
146.3306879999999
 20
-133.511004
 30
0.0
 11
146.3306879999999
 21
-131.231004
 31
0.0
  0
LINE
  5
317
330
1E
100
AcDbEntity
  8
255
 62
     0
100
AcDbLine
 10
149.2106879999998
 20
-132.1510039999999
 30
0.0
 11
149.2106879999998
 21
-133.511004
 31
0.0
  0
LINE
  5
318
330
1E
100
AcDbEntity
  8
255
 62
     0
100
AcDbLine
 10
151.130688
 20
-133.511004
 30
0.0
 11
151.130688
 21
-132.871004
 31
0.0
  0
LINE
  5
319
330
1E
100
AcDbEntity
  8
255
 62
     0
100
AcDbLine
 10
140.0506879999996
 20
-130.791004
 30
0.0
 11
142.5706879999999
 21
-130.791004
 31
0.0
  0
LINE
  5
31A
330
1E
100
AcDbEntity
  8
255
 62
     0
100
AcDbLine
 10
141.0906879999999
 20
-133.031004
 30
0.0
 11
138.5706879999996
 21
-133.031004
 31
0.0
  0
LINE
  5
31B
330
1E
100
AcDbEntity
  8
255
 62
     0
100
AcDbLine
 10
141.650688
 20
-131.671004
 30
0.0
 11
140.0506879999996
 21
-131.671004
 31
0.0
  0
LINE
  5
31C
330
1E
100
AcDbEntity
  8
255
 62
     0
100
AcDbLine
 10
141.0906879999999
 20
-132.1510039999999
 30
0.0
 11
139.4906879999996
 21
-132.1510039999999
 31
0.0
  0
LINE
  5
31D
330
1E
100
AcDbEntity
  8
255
 62
     0
100
AcDbLine
 10
136.0627819999999
 20
-133.3934459999996
 30
0.0
 11
136.7411669999997
 21
-132.715062
 31
0.0
  0
LINE
  5
31E
330
1E
100
AcDbEntity
  8
255
 62
     0
100
AcDbLine
 10
135.7152759999999
 20
-133.4015409999999
 30
0.0
 11
136.749262
 21
-132.367555
 31
0.0
  0
LINE
  5
31F
330
1E
100
AcDbEntity
  8
255
 62
     0
100
AcDbLine
 10
135.375865
 20
-133.4015409999999
 30
0.0
 11
136.749262
 21
-132.028144
 31
0.0
  0
LINE
  5
320
330
1E
100
AcDbEntity
  8
255
 62
     0
100
AcDbLine
 10
135.036453
 20
-133.4015409999999
 30
0.0
 11
136.749262
 21
-131.688733
 31
0.0
  0
LINE
  5
321
330
1E
100
AcDbEntity
  8
255
 62
     0
100
AcDbLine
 10
134.6970419999999
 20
-133.4015409999999
 30
0.0
 11
136.749262
 21
-131.349321
 31
0.0
  0
LINE
  5
322
330
1E
100
AcDbEntity
  8
255
 62
     0
100
AcDbLine
 10
134.3576309999999
 20
-133.4015409999999
 30
0.0
 11
136.749262
 21
-131.00991
 31
0.0
  0
LINE
  5
323
330
1E
100
AcDbEntity
  8
255
 62
     0
100
AcDbLine
 10
134.0182199999996
 20
-133.4015409999999
 30
0.0
 11
136.749262
 21
-130.670499
 31
0.0
  0
LINE
  5
324
330
1E
100
AcDbEntity
  8
255
 62
     0
100
AcDbLine
 10
133.678808
 20
-133.4015409999999
 30
0.0
 11
136.749262
 21
-130.3310879999999
 31
0.0
  0
LINE
  5
325
330
1E
100
AcDbEntity
  8
255
 62
     0
100
AcDbLine
 10
133.3393969999999
 20
-133.4015409999999
 30
0.0
 11
136.749262
 21
-129.991676
 31
0.0
  0
LINE
  5
326
330
1E
100
AcDbEntity
  8
255
 62
     0
100
AcDbLine
 10
132.999986
 20
-133.4015409999999
 30
0.0
 11
136.749262
 21
-129.6522649999999
 31
0.0
  0
LINE
  5
327
330
1E
100
AcDbEntity
  8
255
 62
     0
100
AcDbLine
 10
132.6605749999999
 20
-133.4015409999999
 30
0.0
 11
136.5842189999999
 21
-129.4778969999996
 31
0.0
  0
LINE
  5
328
330
1E
100
AcDbEntity
  8
255
 62
     0
100
AcDbLine
 10
131.6510279999999
 20
-133.012912
 30
0.0
 11
135.2623989999997
 21
-129.4015409999996
 31
0.0
  0
LINE
  5
329
330
1E
100
AcDbEntity
  8
255
 62
     0
100
AcDbLine
 10
130.134702
 20
-133.042375
 30
0.0
 11
133.7674959999999
 21
-129.4095809999999
 31
0.0
  0
LINE
  5
32A
330
1E
100
AcDbEntity
  8
255
 62
     0
100
AcDbLine
 10
133.160593
 20
-129.7902099999999
 30
0.0
 11
129.549262
 21
-133.4015409999999
 31
0.0
  0
LINE
  5
32B
330
1E
100
AcDbEntity
  8
255
 62
     0
100
AcDbLine
 10
134.341181
 20
-129.87021
 30
0.0
 11
130.745931
 21
-133.46546
 31
0.0
  0
ARC
  5
32C
330
1E
100
AcDbEntity
  8
255
 62
     0
100
AcDbCircle
 10
135.472552
 20
-131.001581
 30
0.0
 40
1.6
100
AcDbArc
 50
98.130102
 51
135.0
  0
ARC
  5
32D
330
1E
100
AcDbEntity
  8
255
 62
     0
100
AcDbCircle
 10
129.003331
 20
-131.9110039999999
 30
0.0
 40
1.6
100
AcDbArc
 50
289.158067
 51
315.0
  0
ARC
  5
32E
330
1E
100
AcDbEntity
  8
255
 62
     0
100
AcDbCircle
 10
134.2919639999996
 20
-130.9215809999999
 30
0.0
 40
1.6
100
AcDbArc
 50
109.1580669999999
 51
135.0
  0
LINE
  5
32F
330
1E
100
AcDbEntity
  8
255
 62
     0
100
AcDbLine
 10
131.288136
 20
-133.149529
 30
0.0
 11
134.890848
 21
-129.546818
 31
0.0
  0
ARC
  5
330
330
1E
100
AcDbEntity
  8
255
 62
     0
100
AcDbCircle
 10
137.0725919999999
 20
-131.001541
 30
0.0
 40
1.6
100
AcDbArc
 50
101.3895139999999
 51
135.0
  0
LINE
  5
331
330
1E
100
AcDbEntity
  8
255
 62
     0
100
AcDbLine
 10
135.9412209999999
 20
-129.87017
 30
0.0
 11
132.409851
 21
-133.4015409999999
 31
0.0
  0
LINE
  5
332
330
1E
100
AcDbEntity
  8
255
 62
     0
100
AcDbLine
 10
132.409851
 20
-133.4015409999999
 30
0.0
 11
135.949262
 21
-133.4015409999999
 31
0.0
  0
ARC
  5
333
330
1E
100
AcDbEntity
  8
255
 62
     0
100
AcDbCircle
 10
135.949262
 20
-132.6015409999999
 30
0.0
 40
0.8
100
AcDbArc
 50
270.0
 51
0.0
  0
LINE
  5
334
330
1E
100
AcDbEntity
  8
255
 62
     0
100
AcDbLine
 10
136.749262
 20
-132.6015409999999
 30
0.0
 11
136.749262
 21
-129.434551
 31
0.0
  0
ARC
  5
335
330
1E
100
AcDbEntity
  8
255
 62
     0
100
AcDbCircle
 10
130.5196569999999
 20
-131.881541
 30
0.0
 40
1.6
100
AcDbArc
 50
278.130102
 51
315.0
  0
ARC
  5
336
330
1E
100
AcDbEntity
  8
255
 62
     0
100
AcDbCircle
 10
139.4906879999996
 20
-131.231004
 30
0.0
 40
0.9200000000000001
100
AcDbArc
 50
90.0
 51
270.0
  0
ARC
  5
337
330
1E
100
AcDbEntity
  8
255
 62
     0
100
AcDbCircle
 10
141.0906879999999
 20
-132.5910039999999
 30
0.0
 40
0.4400000000000003
100
AcDbArc
 50
270.0
 51
90.0
  0
ARC
  5
338
330
1E
100
AcDbEntity
  8
255
 62
     0
100
AcDbCircle
 10
140.0506879999996
 20
-131.231004
 30
0.0
 40
0.4400000000000003
100
AcDbArc
 50
90.0
 51
270.0
  0
ARC
  5
339
330
1E
100
AcDbEntity
  8
255
 62
     0
100
AcDbCircle
 10
141.650688
 20
-132.5910039999999
 30
0.0
 40
0.9200000000000001
100
AcDbArc
 50
270.0
 51
90.0
  0
LINE
  5
33A
330
1E
100
AcDbEntity
  8
255
 62
     0
100
AcDbLine
 10
144.4106879999999
 20
-133.511004
 30
0.0
 11
143.370688
 21
-133.511004
 31
0.0
  0
LINE
  5
33B
330
1E
100
AcDbEntity
  8
255
 62
     0
100
AcDbLine
 10
144.7706879999999
 20
-130.791004
 30
0.0
 11
144.7706879999999
 21
-130.3110039999999
 31
0.0
  0
LINE
  5
33C
330
1E
100
AcDbEntity
  8
255
 62
     0
100
AcDbLine
 10
139.4906879999996
 20
-130.3110039999999
 30
0.0
 11
142.5706879999999
 21
-130.3110039999999
 31
0.0
  0
LINE
  5
33D
330
1E
100
AcDbEntity
  8
255
 62
     0
100
AcDbLine
 10
144.4106879999999
 20
-130.3110039999999
 30
0.0
 11
143.370688
 21
-130.3110039999999
 31
0.0
  0
LINE
  5
33E
330
1E
100
AcDbEntity
  8
255
 62
     0
100
AcDbLine
 10
143.370688
 20
-133.511004
 30
0.0
 11
143.370688
 21
-130.3110039999999
 31
0.0
  0
LINE
  5
33F
330
1E
100
AcDbEntity
  8
255
 62
     0
100
AcDbLine
 10
147.3706879999999
 20
-133.511004
 30
0.0
 11
146.3306879999999
 21
-133.511004
 31
0.0
  0
LINE
  5
340
330
1E
100
AcDbEntity
  8
255
 62
     0
100
AcDbLine
 10
146.4506879999999
 20
-130.3110039999999
 30
0.0
 11
144.7706879999999
 21
-130.3110039999999
 31
0.0
  0
LINE
  5
341
330
1E
100
AcDbEntity
  8
255
 62
     0
100
AcDbLine
 10
144.7706879999999
 20
-130.791004
 30
0.0
 11
145.8906879999998
 21
-130.791004
 31
0.0
  0
ARC
  5
342
330
1E
100
AcDbEntity
  8
255
 62
     0
100
AcDbCircle
 10
145.8906879999998
 20
-131.231004
 30
0.0
 40
0.4400000000000003
100
AcDbArc
 50
0.0
 51
90.0
  0
LINE
  5
343
330
1E
100
AcDbEntity
  8
255
 62
     0
100
AcDbLine
 10
152.1706879999999
 20
-133.511004
 30
0.0
 11
151.130688
 21
-133.511004
 31
0.0
  0
LINE
  5
344
330
1E
100
AcDbEntity
  8
255
 62
     0
100
AcDbLine
 10
151.130688
 20
-130.3110039999999
 30
0.0
 11
152.1706879999999
 21
-130.3110039999999
 31
0.0
  0
ARC
  5
345
330
1E
100
AcDbEntity
  8
255
 62
     0
100
AcDbCircle
 10
146.4506879999999
 20
-131.231004
 30
0.0
 40
0.9200000000000001
100
AcDbArc
 50
0.0
 51
90.0
  0
LINE
  5
346
330
1E
100
AcDbEntity
  8
255
 62
     0
100
AcDbLine
 10
149.2106879999998
 20
-131.671004
 30
0.0
 11
150.8906879999998
 21
-131.671004
 31
0.0
  0
LINE
  5
347
330
1E
100
AcDbEntity
  8
255
 62
     0
100
AcDbLine
 10
150.8906879999998
 20
-132.1510039999999
 30
0.0
 11
149.2106879999998
 21
-132.1510039999999
 31
0.0
  0
LINE
  5
348
330
1E
100
AcDbEntity
  8
255
 62
     0
100
AcDbLine
 10
152.1706879999999
 20
-133.111004
 30
0.0
 11
152.1706879999999
 21
-133.511004
 31
0.0
  0
ARC
  5
349
330
1E
100
AcDbEntity
  8
255
 62
     0
100
AcDbCircle
 10
150.9706879999999
 20
-130.7110039999999
 30
0.0
 40
1.199999999999999
100
AcDbArc
 50
270.0
 51
0.0
  0
ARC
  5
34A
330
1E
100
AcDbEntity
  8
255
 62
     0
100
AcDbCircle
 10
150.9706879999999
 20
-133.111004
 30
0.0
 40
1.199999999999999
100
AcDbArc
 50
0.0
 51
90.0
  0
ARC
  5
34B
330
1E
100
AcDbEntity
  8
255
 62
     0
100
AcDbCircle
 10
149.9306879999999
 20
-132.871004
 30
0.0
 40
1.199999999999999
100
AcDbArc
 50
0.0
 51
36.869898
  0
LINE
  5
34C
330
1E
100
AcDbEntity
  8
255
 62
     0
100
AcDbLine
 10
151.130688
 20
-130.951004
 30
0.0
 11
151.130688
 21
-130.3110039999999
 31
0.0
  0
ARC
  5
34D
330
1E
100
AcDbEntity
  8
255
 62
     0
100
AcDbCircle
 10
149.9306879999999
 20
-130.951004
 30
0.0
 40
1.199999999999999
100
AcDbArc
 50
323.130102
 51
0.0
  0
LINE
  5
34E
330
1E
100
AcDbEntity
  8
255
 62
     0
100
AcDbLine
 10
149.2106879999998
 20
-133.511004
 30
0.0
 11
148.1706879999999
 21
-133.511004
 31
0.0
  0
LINE
  5
34F
330
1E
100
AcDbEntity
  8
255
 62
     0
100
AcDbLine
 10
152.1706879999999
 20
-130.3110039999999
 30
0.0
 11
152.1706879999999
 21
-130.7110039999999
 31
0.0
  0
LINE
  5
350
330
1E
100
AcDbEntity
  8
255
 62
     0
100
AcDbLine
 10
149.2106879999998
 20
-130.3110039999999
 30
0.0
 11
148.1706879999999
 21
-130.3110039999999
 31
0.0
  0
LINE
  5
351
330
1E
100
AcDbEntity
  8
255
 62
     0
100
AcDbLine
 10
149.2106879999998
 20
-130.3110039999999
 30
0.0
 11
149.2106879999998
 21
-131.671004
 31
0.0
  0
LINE
  5
352
330
1E
100
AcDbEntity
  8
255
 62
     0
100
AcDbLine
 10
142.5706879999999
 20
-130.3110039999999
 30
0.0
 11
142.5706879999999
 21
-130.791004
 31
0.0
  0
LINE
  5
353
330
1E
100
AcDbEntity
  8
255
 62
     0
100
AcDbLine
 10
138.5706879999996
 20
-133.031004
 30
0.0
 11
138.5706879999996
 21
-133.511004
 31
0.0
  0
TEXT
  5
354
330
1E
100
AcDbEntity
  8
255
 62
     0
100
AcDbText
 10
154.7574309999999
 20
-133.911004
 30
0.0
 40
4.0
  1
三化工業株式会社
100
AcDbText
  0
LINE
  5
355
330
1E
100
AcDbEntity
  8
255
 62
     0
100
AcDbLine
 10
141.996005
 20
-133.4437389999999
 30
0.0
 11
142.503423
 21
-132.9363209999999
 31
0.0
  0
LINE
  5
356
330
1E
100
AcDbEntity
  8
255
 62
     0
100
AcDbLine
 10
141.704012
 20
-133.509457
 30
0.0
 11
142.5691409999999
 21
-132.644328
 31
0.0
  0
LINE
  5
357
330
1E
100
AcDbEntity
  8
255
 62
     0
100
AcDbLine
 10
141.476191
 20
-133.511004
 30
0.0
 11
142.5565959999999
 21
-132.430599
 31
0.0
  0
LINE
  5
358
330
1E
100
AcDbEntity
  8
255
 62
     0
100
AcDbLine
 10
141.2499169999998
 20
-133.511004
 30
0.0
 11
142.5067919999999
 21
-132.254128
 31
0.0
  0
LINE
  5
359
330
1E
100
AcDbEntity
  8
255
 62
     0
100
AcDbLine
 10
141.0236429999999
 20
-133.511004
 30
0.0
 11
142.4309979999998
 21
-132.1036479999999
 31
0.0
  0
LINE
  5
35A
330
1E
100
AcDbEntity
  8
255
 62
     0
100
AcDbLine
 10
140.797368
 20
-133.511004
 30
0.0
 11
142.333712
 21
-131.9746609999999
 31
0.0
  0
LINE
  5
35B
330
1E
100
AcDbEntity
  8
255
 62
     0
100
AcDbLine
 10
140.5710939999996
 20
-133.511004
 30
0.0
 11
141.0510939999998
 21
-133.031004
 31
0.0
  0
LINE
  5
35C
330
1E
100
AcDbEntity
  8
255
 62
     0
100
AcDbLine
 10
141.5290479999999
 20
-132.55305
 30
0.0
 11
142.2165169999999
 21
-131.865582
 31
0.0
  0
LINE
  5
35D
330
1E
100
AcDbEntity
  8
255
 62
     0
100
AcDbLine
 10
140.3448199999999
 20
-133.511004
 30
0.0
 11
140.8248199999998
 21
-133.031004
 31
0.0
  0
LINE
  5
35E
330
1E
100
AcDbEntity
  8
255
 62
     0
100
AcDbLine
 10
141.4764499999999
 20
-132.379374
 30
0.0
 11
142.079024
 21
-131.7768
 31
0.0
  0
LINE
  5
35F
330
1E
100
AcDbEntity
  8
255
 62
     0
100
AcDbLine
 10
140.118546
 20
-133.511004
 30
0.0
 11
140.5985459999999
 21
-133.031004
 31
0.0
  0
LINE
  5
360
330
1E
100
AcDbEntity
  8
255
 62
     0
100
AcDbLine
 10
141.37465
 20
-132.2548999999999
 30
0.0
 11
141.9186559999999
 21
-131.710894
 31
0.0
  0
LINE
  5
361
330
1E
100
AcDbEntity
  8
255
 62
     0
100
AcDbLine
 10
139.8922719999999
 20
-133.511004
 30
0.0
 11
140.372272
 21
-133.031004
 31
0.0
  0
LINE
  5
362
330
1E
100
AcDbEntity
  8
255
 62
     0
100
AcDbLine
 10
141.229726
 20
-132.173549
 30
0.0
 11
141.7289379999999
 21
-131.6743379999999
 31
0.0
  0
LINE
  5
363
330
1E
100
AcDbEntity
  8
255
 62
     0
100
AcDbLine
 10
139.665998
 20
-133.511004
 30
0.0
 11
140.145998
 21
-133.031004
 31
0.0
  0
LINE
  5
364
330
1E
100
AcDbEntity
  8
255
 62
     0
100
AcDbLine
 10
141.025998
 20
-132.1510039999999
 30
0.0
 11
141.505998
 21
-131.671004
 31
0.0
  0
LINE
  5
365
330
1E
100
AcDbEntity
  8
255
 62
     0
100
AcDbLine
 10
142.385998
 20
-130.791004
 30
0.0
 11
142.5706879999999
 21
-130.606314
 31
0.0
  0
LINE
  5
366
330
1E
100
AcDbEntity
  8
255
 62
     0
100
AcDbLine
 10
139.4397229999997
 20
-133.511004
 30
0.0
 11
139.919723
 21
-133.031004
 31
0.0
  0
LINE
  5
367
330
1E
100
AcDbEntity
  8
255
 62
     0
100
AcDbLine
 10
140.799723
 20
-132.1510039999999
 30
0.0
 11
141.2797229999999
 21
-131.671004
 31
0.0
  0
LINE
  5
368
330
1E
100
AcDbEntity
  8
255
 62
     0
100
AcDbLine
 10
142.1597229999999
 20
-130.791004
 30
0.0
 11
142.5706879999999
 21
-130.3800389999999
 31
0.0
  0
LINE
  5
369
330
1E
100
AcDbEntity
  8
255
 62
     0
100
AcDbLine
 10
139.2134489999999
 20
-133.511004
 30
0.0
 11
139.6934489999999
 21
-133.031004
 31
0.0
  0
LINE
  5
36A
330
1E
100
AcDbEntity
  8
255
 62
     0
100
AcDbLine
 10
140.573449
 20
-132.1510039999999
 30
0.0
 11
141.053449
 21
-131.671004
 31
0.0
  0
LINE
  5
36B
330
1E
100
AcDbEntity
  8
255
 62
     0
100
AcDbLine
 10
141.9334489999999
 20
-130.791004
 30
0.0
 11
142.4134489999999
 21
-130.3110039999999
 31
0.0
  0
LINE
  5
36C
330
1E
100
AcDbEntity
  8
255
 62
     0
100
AcDbLine
 10
138.987175
 20
-133.511004
 30
0.0
 11
139.467175
 21
-133.031004
 31
0.0
  0
LINE
  5
36D
330
1E
100
AcDbEntity
  8
255
 62
     0
100
AcDbLine
 10
140.347175
 20
-132.1510039999999
 30
0.0
 11
140.827175
 21
-131.671004
 31
0.0
  0
LINE
  5
36E
330
1E
100
AcDbEntity
  8
255
 62
     0
100
AcDbLine
 10
141.707175
 20
-130.791004
 30
0.0
 11
142.187175
 21
-130.3110039999999
 31
0.0
  0
LINE
  5
36F
330
1E
100
AcDbEntity
  8
255
 62
     0
100
AcDbLine
 10
138.760901
 20
-133.511004
 30
0.0
 11
139.240901
 21
-133.031004
 31
0.0
  0
LINE
  5
370
330
1E
100
AcDbEntity
  8
255
 62
     0
100
AcDbLine
 10
140.120901
 20
-132.1510039999999
 30
0.0
 11
140.600901
 21
-131.671004
 31
0.0
  0
LINE
  5
371
330
1E
100
AcDbEntity
  8
255
 62
     0
100
AcDbLine
 10
141.4809009999999
 20
-130.791004
 30
0.0
 11
141.960901
 21
-130.3110039999999
 31
0.0
  0
LINE
  5
372
330
1E
100
AcDbEntity
  8
255
 62
     0
100
AcDbLine
 10
138.5706879999996
 20
-133.474943
 30
0.0
 11
139.014627
 21
-133.031004
 31
0.0
  0
LINE
  5
373
330
1E
100
AcDbEntity
  8
255
 62
     0
100
AcDbLine
 10
139.894627
 20
-132.1510039999999
 30
0.0
 11
140.374627
 21
-131.671004
 31
0.0
  0
LINE
  5
374
330
1E
100
AcDbEntity
  8
255
 62
     0
100
AcDbLine
 10
141.2546269999999
 20
-130.791004
 30
0.0
 11
141.7346269999999
 21
-130.3110039999999
 31
0.0
  0
LINE
  5
375
330
1E
100
AcDbEntity
  8
255
 62
     0
100
AcDbLine
 10
138.5706879999996
 20
-133.248669
 30
0.0
 11
138.788353
 21
-133.031004
 31
0.0
  0
LINE
  5
376
330
1E
100
AcDbEntity
  8
255
 62
     0
100
AcDbLine
 10
139.6683529999999
 20
-132.1510039999999
 30
0.0
 11
140.148353
 21
-131.671004
 31
0.0
  0
LINE
  5
377
330
1E
100
AcDbEntity
  8
255
 62
     0
100
AcDbLine
 10
141.028353
 20
-130.791004
 30
0.0
 11
141.5083529999999
 21
-130.3110039999999
 31
0.0
  0
LINE
  5
378
330
1E
100
AcDbEntity
  8
255
 62
     0
100
AcDbLine
 10
139.4433
 20
-132.149783
 30
0.0
 11
139.9370149999999
 21
-131.6560669999996
 31
0.0
  0
LINE
  5
379
330
1E
100
AcDbEntity
  8
255
 62
     0
100
AcDbLine
 10
140.802078
 20
-130.791004
 30
0.0
 11
141.282078
 21
-130.3110039999999
 31
0.0
  0
LINE
  5
37A
330
1E
100
AcDbEntity
  8
255
 62
     0
100
AcDbLine
 10
139.248307
 20
-132.118501
 30
0.0
 11
139.785044
 21
-131.5817649999999
 31
0.0
  0
LINE
  5
37B
330
1E
100
AcDbEntity
  8
255
 62
     0
100
AcDbLine
 10
140.575804
 20
-130.791004
 30
0.0
 11
141.0558039999999
 21
-130.3110039999999
 31
0.0
  0
LINE
  5
37C
330
1E
100
AcDbEntity
  8
255
 62
     0
100
AcDbLine
 10
139.084201
 20
-132.0563329999999
 30
0.0
 11
139.6770929999999
 21
-131.4634409999999
 31
0.0
  0
LINE
  5
37D
330
1E
100
AcDbEntity
  8
255
 62
     0
100
AcDbLine
 10
140.34953
 20
-130.791004
 30
0.0
 11
140.8295299999998
 21
-130.3110039999999
 31
0.0
  0
LINE
  5
37E
330
1E
100
AcDbEntity
  8
255
 62
     0
100
AcDbLine
 10
138.943598
 20
-131.970661
 30
0.0
 11
139.615877
 21
-131.298382
 31
0.0
  0
LINE
  5
37F
330
1E
100
AcDbEntity
  8
255
 62
     0
100
AcDbLine
 10
140.1232559999999
 20
-130.791004
 30
0.0
 11
140.603256
 21
-130.3110039999999
 31
0.0
  0
LINE
  5
380
330
1E
100
AcDbEntity
  8
255
 62
     0
100
AcDbLine
 10
138.8235149999996
 20
-131.864471
 30
0.0
 11
139.6606779999999
 21
-131.0273079999996
 31
0.0
  0
LINE
  5
381
330
1E
100
AcDbEntity
  8
255
 62
     0
100
AcDbLine
 10
139.8469919999999
 20
-130.8409939999999
 30
0.0
 11
140.3769819999999
 21
-130.3110039999999
 31
0.0
  0
LINE
  5
382
330
1E
100
AcDbEntity
  8
255
 62
     0
100
AcDbLine
 10
138.7232789999996
 20
-131.738432
 30
0.0
 11
140.150708
 21
-130.3110039999999
 31
0.0
  0
LINE
  5
383
330
1E
100
AcDbEntity
  8
255
 62
     0
100
AcDbLine
 10
138.6441629999999
 20
-131.591275
 30
0.0
 11
139.9244329999999
 21
-130.3110039999999
 31
0.0
  0
LINE
  5
384
330
1E
100
AcDbEntity
  8
255
 62
     0
100
AcDbLine
 10
138.590111
 20
-131.4190519999999
 30
0.0
 11
139.698159
 21
-130.3110039999999
 31
0.0
  0
LINE
  5
385
330
1E
100
AcDbEntity
  8
255
 62
     0
100
AcDbLine
 10
138.570884
 20
-131.212005
 30
0.0
 11
139.4716889999999
 21
-130.3112
 31
0.0
  0
LINE
  5
386
330
1E
100
AcDbEntity
  8
255
 62
     0
100
AcDbLine
 10
138.618583
 20
-130.938032
 30
0.0
 11
139.1977159999999
 21
-130.358899
 31
0.0
  0
LINE
  5
387
330
1E
100
AcDbEntity
  8
255
 62
     0
100
AcDbLine
 10
147.359319
 20
-133.511004
 30
0.0
 11
147.3706879999999
 21
-133.499635
 31
0.0
  0
LINE
  5
388
330
1E
100
AcDbEntity
  8
255
 62
     0
100
AcDbLine
 10
147.1330449999999
 20
-133.511004
 30
0.0
 11
147.3706879999999
 21
-133.273361
 31
0.0
  0
LINE
  5
389
330
1E
100
AcDbEntity
  8
255
 62
     0
100
AcDbLine
 10
146.906771
 20
-133.511004
 30
0.0
 11
147.3706879999999
 21
-133.047087
 31
0.0
  0
LINE
  5
38A
330
1E
100
AcDbEntity
  8
255
 62
     0
100
AcDbLine
 10
146.680497
 20
-133.511004
 30
0.0
 11
147.3706879999999
 21
-132.8208129999999
 31
0.0
  0
LINE
  5
38B
330
1E
100
AcDbEntity
  8
255
 62
     0
100
AcDbLine
 10
146.4542229999999
 20
-133.511004
 30
0.0
 11
147.3706879999999
 21
-132.594539
 31
0.0
  0
LINE
  5
38C
330
1E
100
AcDbEntity
  8
255
 62
     0
100
AcDbLine
 10
146.3306879999999
 20
-133.408265
 30
0.0
 11
147.3706879999999
 21
-132.3682649999996
 31
0.0
  0
LINE
  5
38D
330
1E
100
AcDbEntity
  8
255
 62
     0
100
AcDbLine
 10
146.3306879999999
 20
-133.1819899999999
 30
0.0
 11
147.3706879999999
 21
-132.1419899999999
 31
0.0
  0
LINE
  5
38E
330
1E
100
AcDbEntity
  8
255
 62
     0
100
AcDbLine
 10
146.3306879999999
 20
-132.955716
 30
0.0
 11
147.3706879999999
 21
-131.915716
 31
0.0
  0
LINE
  5
38F
330
1E
100
AcDbEntity
  8
255
 62
     0
100
AcDbLine
 10
146.3306879999999
 20
-132.729442
 30
0.0
 11
147.3706879999999
 21
-131.6894419999999
 31
0.0
  0
LINE
  5
390
330
1E
100
AcDbEntity
  8
255
 62
     0
100
AcDbLine
 10
146.3306879999999
 20
-132.5031679999999
 30
0.0
 11
147.3706879999999
 21
-131.4631679999999
 31
0.0
  0
LINE
  5
391
330
1E
100
AcDbEntity
  8
255
 62
     0
100
AcDbLine
 10
146.3306879999999
 20
-132.276894
 30
0.0
 11
147.3706879999999
 21
-131.236894
 31
0.0
  0
LINE
  5
392
330
1E
100
AcDbEntity
  8
255
 62
     0
100
AcDbLine
 10
146.3306879999999
 20
-132.05062
 30
0.0
 11
147.34898
 21
-131.032328
 31
0.0
  0
LINE
  5
393
330
1E
100
AcDbEntity
  8
255
 62
     0
100
AcDbLine
 10
146.3306879999999
 20
-131.8243449999999
 30
0.0
 11
147.293318
 21
-130.861715
 31
0.0
  0
LINE
  5
394
330
1E
100
AcDbEntity
  8
255
 62
     0
100
AcDbLine
 10
146.3306879999999
 20
-131.598071
 30
0.0
 11
147.2129229999999
 21
-130.715836
 31
0.0
  0
LINE
  5
395
330
1E
100
AcDbEntity
  8
255
 62
     0
100
AcDbLine
 10
146.3306879999999
 20
-131.3717969999999
 30
0.0
 11
147.1115399999999
 21
-130.590945
 31
0.0
  0
LINE
  5
396
330
1E
100
AcDbEntity
  8
255
 62
     0
100
AcDbLine
 10
146.3236409999999
 20
-131.15257
 30
0.0
 11
146.990321
 21
-130.4858889999999
 31
0.0
  0
LINE
  5
397
330
1E
100
AcDbEntity
  8
255
 62
     0
100
AcDbLine
 10
146.259258
 20
-130.990679
 30
0.0
 11
146.848485
 21
-130.401452
 31
0.0
  0
LINE
  5
398
330
1E
100
AcDbEntity
  8
255
 62
     0
100
AcDbLine
 10
146.148915
 20
-130.8747469999999
 30
0.0
 11
146.682877
 21
-130.340786
 31
0.0
  0
LINE
  5
399
330
1E
100
AcDbEntity
  8
255
 62
     0
100
AcDbLine
 10
145.9940669999999
 20
-130.8033209999996
 30
0.0
 11
146.4857169999999
 21
-130.3116709999999
 31
0.0
  0
LINE
  5
39A
330
1E
100
AcDbEntity
  8
255
 62
     0
100
AcDbLine
 10
145.78011
 20
-130.791004
 30
0.0
 11
146.26011
 21
-130.3110039999999
 31
0.0
  0
LINE
  5
39B
330
1E
100
AcDbEntity
  8
255
 62
     0
100
AcDbLine
 10
145.553836
 20
-130.791004
 30
0.0
 11
146.033836
 21
-130.3110039999999
 31
0.0
  0
LINE
  5
39C
330
1E
100
AcDbEntity
  8
255
 62
     0
100
AcDbLine
 10
145.327562
 20
-130.791004
 30
0.0
 11
145.807562
 21
-130.3110039999999
 31
0.0
  0
LINE
  5
39D
330
1E
100
AcDbEntity
  8
255
 62
     0
100
AcDbLine
 10
145.1012879999999
 20
-130.791004
 30
0.0
 11
145.581288
 21
-130.3110039999999
 31
0.0
  0
LINE
  5
39E
330
1E
100
AcDbEntity
  8
255
 62
     0
100
AcDbLine
 10
144.875013
 20
-130.791004
 30
0.0
 11
145.3550129999999
 21
-130.3110039999999
 31
0.0
  0
LINE
  5
39F
330
1E
100
AcDbEntity
  8
255
 62
     0
100
AcDbLine
 10
144.7706879999999
 20
-130.669055
 30
0.0
 11
145.128739
 21
-130.3110039999999
 31
0.0
  0
LINE
  5
3A0
330
1E
100
AcDbEntity
  8
255
 62
     0
100
AcDbLine
 10
144.7706879999999
 20
-130.4427809999999
 30
0.0
 11
144.9024649999999
 21
-130.3110039999999
 31
0.0
  0
LINE
  5
3A1
330
1E
100
AcDbEntity
  8
255
 62
     0
100
AcDbLine
 10
152.1110769999999
 20
-133.511004
 30
0.0
 11
152.1706879999999
 21
-133.4513929999999
 31
0.0
  0
LINE
  5
3A2
330
1E
100
AcDbEntity
  8
255
 62
     0
100
AcDbLine
 10
151.884803
 20
-133.511004
 30
0.0
 11
152.1706879999999
 21
-133.225119
 31
0.0
  0
LINE
  5
3A3
330
1E
100
AcDbEntity
  8
255
 62
     0
100
AcDbLine
 10
151.658529
 20
-133.511004
 30
0.0
 11
152.1658769999999
 21
-133.003656
 31
0.0
  0
LINE
  5
3A4
330
1E
100
AcDbEntity
  8
255
 62
     0
100
AcDbLine
 10
151.432254
 20
-133.511004
 30
0.0
 11
152.1325159999999
 21
-132.8107429999999
 31
0.0
  0
LINE
  5
3A5
330
1E
100
AcDbEntity
  8
255
 62
     0
100
AcDbLine
 10
151.20598
 20
-133.511004
 30
0.0
 11
152.075164
 21
-132.6418209999999
 31
0.0
  0
LINE
  5
3A6
330
1E
100
AcDbEntity
  8
255
 62
     0
100
AcDbLine
 10
151.130688
 20
-133.3600219999999
 30
0.0
 11
151.998711
 21
-132.4919989999999
 31
0.0
  0
LINE
  5
3A7
330
1E
100
AcDbEntity
  8
255
 62
     0
100
AcDbLine
 10
151.130688
 20
-133.1337479999999
 30
0.0
 11
151.905654
 21
-132.358782
 31
0.0
  0
LINE
  5
3A8
330
1E
100
AcDbEntity
  8
255
 62
     0
100
AcDbLine
 10
151.130688
 20
-132.907474
 30
0.0
 11
151.797172
 21
-132.2409899999996
 31
0.0
  0
LINE
  5
3A9
330
1E
100
AcDbEntity
  8
255
 62
     0
100
AcDbLine
 10
151.117604
 20
-132.694284
 30
0.0
 11
151.6735219999999
 21
-132.1383659999999
 31
0.0
  0
LINE
  5
3AA
330
1E
100
AcDbEntity
  8
255
 62
     0
100
AcDbLine
 10
151.075222
 20
-132.5103909999999
 30
0.0
 11
151.5341139999998
 21
-132.051499
 31
0.0
  0
LINE
  5
3AB
330
1E
100
AcDbEntity
  8
255
 62
     0
100
AcDbLine
 10
151.0109209999999
 20
-132.3484179999999
 30
0.0
 11
151.377334
 21
-131.982005
 31
0.0
  0
LINE
  5
3AC
330
1E
100
AcDbEntity
  8
255
 62
     0
100
AcDbLine
 10
151.681547
 20
-131.6777919999996
 30
0.0
 11
151.937476
 21
-131.421863
 31
0.0
  0
LINE
  5
3AD
330
1E
100
AcDbEntity
  8
255
 62
     0
100
AcDbLine
 10
150.9285689999998
 20
-132.204496
 30
0.0
 11
151.199956
 21
-131.933109
 31
0.0
  0
LINE
  5
3AE
330
1E
100
AcDbEntity
  8
255
 62
     0
100
AcDbLine
 10
151.256626
 20
-131.8764389999999
 30
0.0
 11
152.136123
 21
-130.9969419999999
 31
0.0
  0
LINE
  5
3AF
330
1E
100
AcDbEntity
  8
255
 62
     0
100
AcDbLine
 10
150.755787
 20
-132.1510039999999
 30
0.0
 11
150.99553
 21
-131.9112609999999
 31
0.0
  0
LINE
  5
3B0
330
1E
100
AcDbEntity
  8
255
 62
     0
100
AcDbLine
 10
150.996055
 20
-131.910736
 30
0.0
 11
152.17042
 21
-130.7363709999999
 31
0.0
  0
LINE
  5
3B1
330
1E
100
AcDbEntity
  8
255
 62
     0
100
AcDbLine
 10
149.1695129999999
 20
-133.511004
 30
0.0
 11
149.2106879999998
 21
-133.469829
 31
0.0
  0
LINE
  5
3B2
330
1E
100
AcDbEntity
  8
255
 62
     0
100
AcDbLine
 10
150.5295129999999
 20
-132.1510039999999
 30
0.0
 11
152.1706879999999
 21
-130.5098289999999
 31
0.0
  0
LINE
  5
3B3
330
1E
100
AcDbEntity
  8
255
 62
     0
100
AcDbLine
 10
148.9432389999999
 20
-133.511004
 30
0.0
 11
149.2106879999998
 21
-133.243555
 31
0.0
  0
LINE
  5
3B4
330
1E
100
AcDbEntity
  8
255
 62
     0
100
AcDbLine
 10
150.3032389999999
 20
-132.1510039999999
 30
0.0
 11
150.7832389999999
 21
-131.671004
 31
0.0
  0
LINE
  5
3B5
330
1E
100
AcDbEntity
  8
255
 62
     0
100
AcDbLine
 10
151.035979
 20
-131.4182629999999
 30
0.0
 11
152.143239
 21
-130.3110039999999
 31
0.0
  0
LINE
  5
3B6
330
1E
100
AcDbEntity
  8
255
 62
     0
100
AcDbLine
 10
148.7169639999999
 20
-133.511004
 30
0.0
 11
149.2106879999998
 21
-133.0172799999999
 31
0.0
  0
LINE
  5
3B7
330
1E
100
AcDbEntity
  8
255
 62
     0
100
AcDbLine
 10
150.076964
 20
-132.1510039999999
 30
0.0
 11
150.556964
 21
-131.671004
 31
0.0
  0
LINE
  5
3B8
330
1E
100
AcDbEntity
  8
255
 62
     0
100
AcDbLine
 10
151.120435
 20
-131.107533
 30
0.0
 11
151.9169639999998
 21
-130.3110039999999
 31
0.0
  0
LINE
  5
3B9
330
1E
100
AcDbEntity
  8
255
 62
     0
100
AcDbLine
 10
148.49069
 20
-133.511004
 30
0.0
 11
149.2106879999998
 21
-132.791006
 31
0.0
  0
LINE
  5
3BA
330
1E
100
AcDbEntity
  8
255
 62
     0
100
AcDbLine
 10
149.8506899999999
 20
-132.1510039999999
 30
0.0
 11
150.33069
 21
-131.671004
 31
0.0
  0
LINE
  5
3BB
330
1E
100
AcDbEntity
  8
255
 62
     0
100
AcDbLine
 10
151.130688
 20
-130.8710059999999
 30
0.0
 11
151.6906899999999
 21
-130.3110039999999
 31
0.0
  0
LINE
  5
3BC
330
1E
100
AcDbEntity
  8
255
 62
     0
100
AcDbLine
 10
148.2644159999999
 20
-133.511004
 30
0.0
 11
149.2106879999998
 21
-132.564732
 31
0.0
  0
LINE
  5
3BD
330
1E
100
AcDbEntity
  8
255
 62
     0
100
AcDbLine
 10
149.624416
 20
-132.1510039999999
 30
0.0
 11
150.104416
 21
-131.671004
 31
0.0
  0
LINE
  5
3BE
330
1E
100
AcDbEntity
  8
255
 62
     0
100
AcDbLine
 10
151.130688
 20
-130.6447319999996
 30
0.0
 11
151.464416
 21
-130.3110039999999
 31
0.0
  0
LINE
  5
3BF
330
1E
100
AcDbEntity
  8
255
 62
     0
100
AcDbLine
 10
148.1706879999999
 20
-133.3784579999999
 30
0.0
 11
149.2106879999998
 21
-132.338458
 31
0.0
  0
LINE
  5
3C0
330
1E
100
AcDbEntity
  8
255
 62
     0
100
AcDbLine
 10
149.3981419999999
 20
-132.1510039999999
 30
0.0
 11
149.878142
 21
-131.671004
 31
0.0
  0
LINE
  5
3C1
330
1E
100
AcDbEntity
  8
255
 62
     0
100
AcDbLine
 10
151.130688
 20
-130.418458
 30
0.0
 11
151.2381419999998
 21
-130.3110039999999
 31
0.0
  0
LINE
  5
3C2
330
1E
100
AcDbEntity
  8
255
 62
     0
100
AcDbLine
 10
148.1706879999999
 20
-133.152184
 30
0.0
 11
149.651868
 21
-131.671004
 31
0.0
  0
LINE
  5
3C3
330
1E
100
AcDbEntity
  8
255
 62
     0
100
AcDbLine
 10
148.1706879999999
 20
-132.92591
 30
0.0
 11
149.425593
 21
-131.671004
 31
0.0
  0
LINE
  5
3C4
330
1E
100
AcDbEntity
  8
255
 62
     0
100
AcDbLine
 10
148.1706879999999
 20
-132.6996349999999
 30
0.0
 11
149.2106879999998
 21
-131.659635
 31
0.0
  0
LINE
  5
3C5
330
1E
100
AcDbEntity
  8
255
 62
     0
100
AcDbLine
 10
148.1706879999999
 20
-132.473361
 30
0.0
 11
149.2106879999998
 21
-131.433361
 31
0.0
  0
LINE
  5
3C6
330
1E
100
AcDbEntity
  8
255
 62
     0
100
AcDbLine
 10
148.1706879999999
 20
-132.247087
 30
0.0
 11
149.2106879999998
 21
-131.207087
 31
0.0
  0
LINE
  5
3C7
330
1E
100
AcDbEntity
  8
255
 62
     0
100
AcDbLine
 10
148.1706879999999
 20
-132.0208129999999
 30
0.0
 11
149.2106879999998
 21
-130.9808129999999
 31
0.0
  0
LINE
  5
3C8
330
1E
100
AcDbEntity
  8
255
 62
     0
100
AcDbLine
 10
148.1706879999999
 20
-131.7945389999999
 30
0.0
 11
149.2106879999998
 21
-130.754539
 31
0.0
  0
LINE
  5
3C9
330
1E
100
AcDbEntity
  8
255
 62
     0
100
AcDbLine
 10
148.1706879999999
 20
-131.568265
 30
0.0
 11
149.2106879999998
 21
-130.528265
 31
0.0
  0
LINE
  5
3CA
330
1E
100
AcDbEntity
  8
255
 62
     0
100
AcDbLine
 10
148.1706879999999
 20
-131.3419899999999
 30
0.0
 11
149.2016739999999
 21
-130.3110039999999
 31
0.0
  0
LINE
  5
3CB
330
1E
100
AcDbEntity
  8
255
 62
     0
100
AcDbLine
 10
148.1706879999999
 20
-131.115716
 30
0.0
 11
148.9754
 21
-130.3110039999999
 31
0.0
  0
LINE
  5
3CC
330
1E
100
AcDbEntity
  8
255
 62
     0
100
AcDbLine
 10
148.1706879999999
 20
-130.889442
 30
0.0
 11
148.7491259999998
 21
-130.3110039999999
 31
0.0
  0
LINE
  5
3CD
330
1E
100
AcDbEntity
  8
255
 62
     0
100
AcDbLine
 10
148.1706879999999
 20
-130.6631679999999
 30
0.0
 11
148.5228519999999
 21
-130.3110039999999
 31
0.0
  0
LINE
  5
3CE
330
1E
100
AcDbEntity
  8
255
 62
     0
100
AcDbLine
 10
148.1706879999999
 20
-130.436894
 30
0.0
 11
148.296578
 21
-130.3110039999999
 31
0.0
  0
LINE
  5
3CF
330
1E
100
AcDbEntity
  8
255
  6
CENTER
 62
     0
100
AcDbLine
 10
50.478409
 20
-109.4999999999999
 30
0.0
 11
33.953476
 21
-109.4999999999999
 31
0.0
  0
LINE
  5
3D0
330
1E
100
AcDbEntity
  8
255
  6
CENTER
 62
     0
100
AcDbLine
 10
37.578323
 20
-104.973799
 30
0.0
 11
37.578323
 21
-114.016901
 31
0.0
  0
LINE
  5
3D1
330
1E
100
AcDbEntity
  8
255
 62
     0
100
AcDbLine
 10
41.84416999999998
 20
-107.4999999999999
 30
0.0
 11
41.84416999999998
 21
-111.4999999999999
 31
0.0
  0
LINE
  5
3D2
330
1E
100
AcDbEntity
  8
255
 62
     0
100
AcDbLine
 10
49.303871
 20
-106.4999999999999
 30
0.0
 11
49.303871
 21
-112.5
 31
0.0
  0
CIRCLE
  5
3D3
330
1E
100
AcDbEntity
  8
255
 62
     0
100
AcDbCircle
 10
37.578323
 20
-109.4999999999999
 30
0.0
 40
2.0
  0
CIRCLE
  5
3D4
330
1E
100
AcDbEntity
  8
255
 62
     0
100
AcDbCircle
 10
37.578323
 20
-109.4999999999999
 30
0.0
 40
3.0
  0
LINE
  5
3D5
330
1E
100
AcDbEntity
  8
255
 62
     0
100
AcDbLine
 10
49.303871
 20
-106.4999999999999
 30
0.0
 11
41.84416999999998
 21
-107.4999999999999
 31
0.0
  0
LINE
  5
3D6
330
1E
100
AcDbEntity
  8
255
 62
     0
100
AcDbLine
 10
41.84416999999998
 20
-111.4999999999999
 30
0.0
 11
49.303871
 21
-112.5
 31
0.0
  0
LINE
  5
3D7
330
1E
100
AcDbEntity
  8
255
 62
     0
100
AcDbLine
 10
-69.5
 20
-98.0
 30
0.0
 11
-74.5
 21
-105.0
 31
0.0
  0
LINE
  5
3D8
330
1E
100
AcDbEntity
  8
255
 62
     0
100
AcDbLine
 10
-69.5
 20
-98.0
 30
0.0
 11
-64.5
 21
-105.0
 31
0.0
  0
LINE
  5
3D9
330
1E
100
AcDbEntity
  8
255
 62
     0
100
AcDbLine
 10
-69.5
 20
-105.0
 30
0.0
 11
-74.5
 21
-112.0
 31
0.0
  0
LINE
  5
3DA
330
1E
100
AcDbEntity
  8
255
 62
     0
100
AcDbLine
 10
-69.5
 20
-105.0
 30
0.0
 11
-64.5
 21
-112.0
 31
0.0
  0
LINE
  5
3DB
330
1E
100
AcDbEntity
  8
255
 62
     0
100
AcDbLine
 10
-74.5
 20
-119.0
 30
0.0
 11
-69.5
 21
-112.0
 31
0.0
  0
LINE
  5
3DC
330
1E
100
AcDbEntity
  8
255
 62
     0
100
AcDbLine
 10
-69.5
 20
-112.0
 30
0.0
 11
-64.5
 21
-119.0
 31
0.0
  0
LINE
  5
3DD
330
1E
100
AcDbEntity
  8
255
 62
     0
100
AcDbLine
 10
-74.5
 20
-98.0
 30
0.0
 11
-74.5
 21
-136.0
 31
0.0
  0
TEXT
  5
3DE
330
1E
100
AcDbEntity
  8
255
 62
     0
100
AcDbText
 10
37.597158
 20
-133.735373
 30
0.0
 40
6.0
  1
mm
 41
0.833333
100
AcDbText
  0
LINE
  5
3DF
330
1E
100
AcDbEntity
  8
255
 62
     0
100
AcDbLine
 10
51.5
 20
-104.0
 30
0.0
 11
51.5
 21
-136.0
 31
0.0
  0
LINE
  5
3E0
330
1E
100
AcDbEntity
  8
255
 62
     0
100
AcDbLine
 10
88.49999999999999
 20
-104.0
 30
0.0
 11
88.49999999999999
 21
-115.0
 31
0.0
  0
LINE
  5
3E1
330
1E
100
AcDbEntity
  8
255
 62
     0
100
AcDbLine
 10
94.50000000000001
 20
-104.0
 30
0.0
 11
94.50000000000001
 21
-115.0
 31
0.0
  0
TEXT
  5
3E2
330
1E
100
AcDbEntity
  8
255
 62
     0
100
AcDbText
 10
91.5
 20
-105.4999999999999
 30
0.0
 40
4.0
  1
仕上
 50
0.0000010000000028
 41
0.833333
 51
1.570796
  7
TATEGAKI
100
AcDbText
  0
LINE
  5
3E3
330
1E
100
AcDbEntity
  8
255
 62
     0
100
AcDbLine
 10
197.5
 20
136.0
 30
0.0
 11
197.5
 21
-136.0
 31
0.0
  0
LINE
  5
3E4
330
1E
100
AcDbEntity
  8
255
 62
     0
100
AcDbLine
 10
197.5
 20
-136.0
 30
0.0
 11
-197.5
 21
-136.0
 31
0.0
  0
LINE
  5
3E5
330
1E
100
AcDbEntity
  8
255
 62
     0
100
AcDbLine
 10
-74.5
 20
-136.0
 30
0.0
 11
197.5
 21
-136.0
 31
0.0
  0
LINE
  5
3E6
330
1E
100
AcDbEntity
  8
255
 62
     0
100
AcDbLine
 10
197.5
 20
-136.0
 30
0.0
 11
197.5
 21
-98.0
 31
0.0
  0
LINE
  5
4C9
330
1E
100
AcDbEntity
  8
002
 62
     0
100
AcDbLine
 10
-86.0
 20
38.5
 30
0.0
 11
-86.0
 21
91.0
 31
0.0
  0
LINE
  5
4CA
330
1E
100
AcDbEntity
  8
002
 62
     0
100
AcDbLine
 10
6.0
 20
38.5
 30
0.0
 11
6.0
 21
91.0
 31
0.0
  0
LINE
  5
4CB
330
1E
100
AcDbEntity
  8
002
 62
     0
100
AcDbLine
 10
-86.0
 20
90.0
 30
0.0
 11
6.0
 21
90.0
 31
0.0
  0
INSERT
  5
4CC
330
1E
100
AcDbEntity
  8
002
 62
     0
100
AcDbBlockReference
  2
ARROW
 10
-86.0
 20
90.0
 30
0.0
  0
INSERT
  5
4CD
330
1E
100
AcDbEntity
  8
002
 62
     0
100
AcDbBlockReference
  2
ARROW
 10
6.0
 20
90.0
 30
0.0
 50
180.0
  0
TEXT
  5
4CE
330
1E
100
AcDbEntity
  8
002
 62
     0
100
AcDbText
 10
-42.75
 20
91.0
 30
0.0
 40
3.2
  1
92
 41
0.859375
100
AcDbText
  0
LINE
  5
4CF
330
1E
100
AcDbEntity
  8
002
 62
     0
100
AcDbLine
 10
-138.0
 20
-17.0
 30
0.0
 11
-138.0
 21
-61.0
 31
0.0
  0
LINE
  5
4D0
330
1E
100
AcDbEntity
  8
002
 62
     0
100
AcDbLine
 10
58.0
 20
-17.0
 30
0.0
 11
58.0
 21
-61.0
 31
0.0
  0
LINE
  5
4D1
330
1E
100
AcDbEntity
  8
002
 62
     0
100
AcDbLine
 10
-138.0
 20
-60.0
 30
0.0
 11
58.0
 21
-60.0
 31
0.0
  0
INSERT
  5
4D2
330
1E
100
AcDbEntity
  8
002
 62
     0
100
AcDbBlockReference
  2
ARROW
 10
-138.0
 20
-60.0
 30
0.0
  0
INSERT
  5
4D3
330
1E
100
AcDbEntity
  8
002
 62
     0
100
AcDbBlockReference
  2
ARROW
 10
58.0
 20
-60.0
 30
0.0
 50
180.0
  0
TEXT
  5
4D4
330
1E
100
AcDbEntity
  8
002
 62
     0
100
AcDbText
 10
-44.125
 20
-59.0
 30
0.0
 40
3.2
  1
196
 41
0.9667969999999998
100
AcDbText
  0
LINE
  5
4D5
330
1E
100
AcDbEntity
  8
002
 62
     0
100
AcDbLine
 10
-77.0
 20
-10.0
 30
0.0
 11
-171.0
 21
-10.0
 31
0.0
  0
LINE
  5
4D6
330
1E
100
AcDbEntity
  8
002
 62
     0
100
AcDbLine
 10
-77.0
 20
50.0
 30
0.0
 11
-171.0
 21
50.0
 31
0.0
  0
LINE
  5
4D7
330
1E
100
AcDbEntity
  8
002
 62
     0
100
AcDbLine
 10
-170.0
 20
-10.0
 30
0.0
 11
-170.0
 21
50.0
 31
0.0
  0
INSERT
  5
4D8
330
1E
100
AcDbEntity
  8
002
 62
     0
100
AcDbBlockReference
  2
ARROW
 10
-170.0
 20
-10.0
 30
0.0
 50
90.0
  0
INSERT
  5
4D9
330
1E
100
AcDbEntity
  8
002
 62
     0
100
AcDbBlockReference
  2
ARROW
 10
-170.0
 20
50.0
 30
0.0
 50
270.0
  0
TEXT
  5
4DA
330
1E
100
AcDbEntity
  8
002
 62
     0
100
AcDbText
 10
-171.0
 20
17.25
 30
0.0
 40
3.2
  1
60
 50
90.00000300000001
 41
0.9375
100
AcDbText
  0
LINE
  5
4DB
330
1E
100
AcDbEntity
  8
002
 62
     0
100
AcDbLine
 10
-138.0
 20
-17.0
 30
0.0
 11
-138.0
 21
-51.0
 31
0.0
  0
LINE
  5
4DC
330
1E
100
AcDbEntity
  8
002
 62
     0
100
AcDbLine
 10
-131.0
 20
-20.0
 30
0.0
 11
-131.0
 21
-51.0
 31
0.0
  0
LINE
  5
4DD
330
1E
100
AcDbEntity
  8
002
 62
     0
100
AcDbLine
 10
-138.0
 20
-50.0
 30
0.0
 11
-131.0
 21
-50.0
 31
0.0
  0
INSERT
  5
4DE
330
1E
100
AcDbEntity
  8
002
 62
     0
100
AcDbBlockReference
  2
ARROW
 10
-138.0
 20
-50.0
 30
0.0
 50
180.0
  0
INSERT
  5
4DF
330
1E
100
AcDbEntity
  8
002
 62
     0
100
AcDbBlockReference
  2
ARROW
 10
-131.0
 20
-50.0
 30
0.0
  0
TEXT
  5
4E0
330
1E
100
AcDbEntity
  8
002
 62
     0
100
AcDbText
 10
-128.0
 20
-49.0
 30
0.0
 40
3.2
  1
7
 41
0.859375
100
AcDbText
  0
LINE
  5
4E1
330
1E
100
AcDbEntity
  8
002
 62
     0
100
AcDbLine
 10
-138.0
 20
-50.0
 30
0.0
 11
-141.0
 21
-50.0
 31
0.0
  0
LINE
  5
4E2
330
1E
100
AcDbEntity
  8
002
 62
     0
100
AcDbLine
 10
-131.0
 20
-50.0
 30
0.0
 11
-125.2499999999999
 21
-50.0
 31
0.0
  0
LINE
  5
4E3
330
1E
100
AcDbEntity
  8
002
 62
     0
100
AcDbLine
 10
-69.10622700000001
 20
0.785836
 30
0.0
 11
-79.829874
 21
-8.214352999999999
 31
0.0
  0
INSERT
  5
4E4
330
1E
100
AcDbEntity
  8
002
 62
     0
100
AcDbBlockReference
  2
ARROW
 10
-79.829874
 20
-8.214352999999999
 30
0.0
 50
40.006209
  0
TEXT
  5
4E5
330
1E
100
AcDbEntity
  8
002
 62
     0
100
AcDbText
 10
-78.17482
 20
-5.519766999999997
 30
0.0
 40
3.2
  1
4-R5
 50
40.006211
 41
0.859375
100
AcDbText
  0
LINE
  5
4E6
330
1E
100
AcDbEntity
  8
002
 62
     0
100
AcDbLine
 10
-44.0
 20
-39.464102
 30
0.0
 11
-46.0
 21
-40.0
 31
0.0
  0
LINE
  5
4E7
330
1E
100
AcDbEntity
  8
002
 62
     0
100
AcDbLine
 10
-46.0
 20
-40.0
 30
0.0
 11
-44.0
 21
-40.535898
 31
0.0
  0
LINE
  5
4E8
330
1E
100
AcDbEntity
  8
002
 62
     0
100
AcDbLine
 10
-92.0
 20
7.5
 30
0.0
 11
-161.0
 21
7.5
 31
0.0
  0
LINE
  5
4E9
330
1E
100
AcDbEntity
  8
002
 62
     0
100
AcDbLine
 10
-92.0
 20
32.5
 30
0.0
 11
-161.0
 21
32.5
 31
0.0
  0
LINE
  5
4EA
330
1E
100
AcDbEntity
  8
002
 62
     0
100
AcDbLine
 10
-160.0
 20
7.5
 30
0.0
 11
-160.0
 21
32.5
 31
0.0
  0
INSERT
  5
4EB
330
1E
100
AcDbEntity
  8
002
 62
     0
100
AcDbBlockReference
  2
ARROW
 10
-160.0
 20
7.5
 30
0.0
 50
90.0
  0
INSERT
  5
4EC
330
1E
100
AcDbEntity
  8
002
 62
     0
100
AcDbBlockReference
  2
ARROW
 10
-160.0
 20
32.5
 30
0.0
 50
270.0
  0
TEXT
  5
4ED
330
1E
100
AcDbEntity
  8
002
 62
     0
100
AcDbText
 10
-161.0
 20
17.25
 30
0.0
 40
3.2
  1
25
 50
90.00000300000001
 41
0.859375
100
AcDbText
  0
LINE
  5
4EE
330
1E
100
AcDbEntity
  8
002
 62
     0
100
AcDbLine
 10
-134.4142139999999
 20
57.414214
 30
0.0
 11
-136.535534
 21
59.535534
 31
0.0
  0
INSERT
  5
4EF
330
1E
100
AcDbEntity
  8
002
 62
     0
100
AcDbBlockReference
  2
ARROW
 10
-136.535534
 20
59.535534
 30
0.0
 50
135.0
  0
TEXT
  5
4F0
330
1E
100
AcDbEntity
  8
002
 62
     0
100
AcDbText
 10
-145.727923
 20
70.142134
 30
0.0
 40
3.2
  1
4-R5
 50
314.999992
 41
0.859375
100
AcDbText
  0
LINE
  5
4F1
330
1E
100
AcDbEntity
  8
002
 62
     0
100
AcDbLine
 10
-136.535534
 20
59.535534
 30
0.0
 11
-146.435029
 21
69.435029
 31
0.0
  0
LINE
  5
4F2
330
1E
100
AcDbEntity
  8
002
 62
     0
100
AcDbLine
 10
-81.0
 20
46.0
 30
0.0
 11
-81.0
 21
81.0
 31
0.0
  0
LINE
  5
4F3
330
1E
100
AcDbEntity
  8
002
 62
     0
100
AcDbLine
 10
1.0
 20
46.0
 30
0.0
 11
1.0
 21
81.0
 31
0.0
  0
LINE
  5
4F4
330
1E
100
AcDbEntity
  8
002
 62
     0
100
AcDbLine
 10
-81.0
 20
80.0
 30
0.0
 11
1.0
 21
80.0
 31
0.0
  0
INSERT
  5
4F5
330
1E
100
AcDbEntity
  8
002
 62
     0
100
AcDbBlockReference
  2
ARROW
 10
-81.0
 20
80.0
 30
0.0
  0
INSERT
  5
4F6
330
1E
100
AcDbEntity
  8
002
 62
     0
100
AcDbBlockReference
  2
ARROW
 10
1.0
 20
80.0
 30
0.0
 50
180.0
  0
TEXT
  5
4F7
330
1E
100
AcDbEntity
  8
002
 62
     0
100
AcDbText
 10
-42.75
 20
81.0
 30
0.0
 40
3.2
  1
82
 41
0.859375
100
AcDbText
  0
LINE
  5
4F8
330
1E
100
AcDbEntity
  8
002
 62
     0
100
AcDbLine
 10
-111.5766239999999
 20
62.342178
 30
0.0
 11
-110.0
 21
61.0
 31
0.0
  0
LINE
  5
4F9
330
1E
100
AcDbEntity
  8
002
 62
     0
100
AcDbLine
 10
-110.0
 20
61.0
 30
0.0
 11
-110.694308
 21
62.95067299999999
 31
0.0
  0
LINE
  5
4FA
330
1E
100
AcDbEntity
  8
002
 62
     0
100
AcDbLine
 10
54.0
 20
-21.0
 30
0.0
 11
91.0
 21
-21.0
 31
0.0
  0
LINE
  5
4FB
330
1E
100
AcDbEntity
  8
002
 62
     0
100
AcDbLine
 10
54.0
 20
61.0
 30
0.0
 11
91.0
 21
61.0
 31
0.0
  0
LINE
  5
4FC
330
1E
100
AcDbEntity
  8
002
 62
     0
100
AcDbLine
 10
90.0
 20
-21.0
 30
0.0
 11
90.0
 21
61.0
 31
0.0
  0
INSERT
  5
4FD
330
1E
100
AcDbEntity
  8
002
 62
     0
100
AcDbBlockReference
  2
ARROW
 10
90.0
 20
-21.0
 30
0.0
 50
90.0
  0
INSERT
  5
4FE
330
1E
100
AcDbEntity
  8
002
 62
     0
100
AcDbBlockReference
  2
ARROW
 10
90.0
 20
61.0
 30
0.0
 50
270.0
  0
TEXT
  5
4FF
330
1E
100
AcDbEntity
  8
002
 62
     0
100
AcDbText
 10
89.0
 20
17.25
 30
0.0
 40
3.2
  1
82
 50
90.00000300000001
 41
0.859375
100
AcDbText
  0
LINE
  5
500
330
1E
100
AcDbEntity
  8
002
 62
     0
100
AcDbLine
 10
54.0
 20
-21.0
 30
0.0
 11
81.0
 21
-21.0
 31
0.0
  0
LINE
  5
501
330
1E
100
AcDbEntity
  8
002
 62
     0
100
AcDbLine
 10
57.0
 20
-14.0
 30
0.0
 11
81.0
 21
-14.0
 31
0.0
  0
LINE
  5
502
330
1E
100
AcDbEntity
  8
002
 62
     0
100
AcDbLine
 10
80.0
 20
-21.0
 30
0.0
 11
80.0
 21
-14.0
 31
0.0
  0
INSERT
  5
503
330
1E
100
AcDbEntity
  8
002
 62
     0
100
AcDbBlockReference
  2
ARROW
 10
80.0
 20
-21.0
 30
0.0
 50
270.0
  0
INSERT
  5
504
330
1E
100
AcDbEntity
  8
002
 62
     0
100
AcDbBlockReference
  2
ARROW
 10
80.0
 20
-14.0
 30
0.0
 50
90.0
  0
TEXT
  5
505
330
1E
100
AcDbEntity
  8
002
 62
     0
100
AcDbText
 10
79.0
 20
-11.0
 30
0.0
 40
3.2
  1
7
 50
90.00000300000001
 41
0.859375
100
AcDbText
  0
LINE
  5
506
330
1E
100
AcDbEntity
  8
002
 62
     0
100
AcDbLine
 10
80.0
 20
-21.0
 30
0.0
 11
80.0
 21
-24.0
 31
0.0
  0
LINE
  5
507
330
1E
100
AcDbEntity
  8
002
 62
     0
100
AcDbLine
 10
80.0
 20
-14.0
 30
0.0
 11
80.0
 21
-8.25
 31
0.0
  0
LINE
  5
508
330
1E
100
AcDbEntity
  8
002
 62
     0
100
AcDbLine
 10
51.0
 20
-20.0
 30
0.0
 11
51.0
 21
-51.0
 31
0.0
  0
LINE
  5
509
330
1E
100
AcDbEntity
  8
002
 62
     0
100
AcDbLine
 10
58.0
 20
-17.0
 30
0.0
 11
58.0
 21
-51.0
 31
0.0
  0
LINE
  5
50A
330
1E
100
AcDbEntity
  8
002
 62
     0
100
AcDbLine
 10
51.0
 20
-50.0
 30
0.0
 11
58.0
 21
-50.0
 31
0.0
  0
INSERT
  5
50B
330
1E
100
AcDbEntity
  8
002
 62
     0
100
AcDbBlockReference
  2
ARROW
 10
51.0
 20
-50.0
 30
0.0
 50
180.0
  0
INSERT
  5
50C
330
1E
100
AcDbEntity
  8
002
 62
     0
100
AcDbBlockReference
  2
ARROW
 10
58.0
 20
-50.0
 30
0.0
  0
TEXT
  5
50D
330
1E
100
AcDbEntity
  8
002
 62
     0
100
AcDbText
 10
45.25
 20
-49.0
 30
0.0
 40
3.2
  1
7
 41
0.859375
100
AcDbText
  0
LINE
  5
50E
330
1E
100
AcDbEntity
  8
002
 62
     0
100
AcDbLine
 10
51.0
 20
-50.0
 30
0.0
 11
45.25
 21
-50.0
 31
0.0
  0
LINE
  5
50F
330
1E
100
AcDbEntity
  8
002
 62
     0
100
AcDbLine
 10
58.0
 20
-50.0
 30
0.0
 11
61.0
 21
-50.0
 31
0.0
  0
LINE
  5
510
330
1E
100
AcDbEntity
  8
002
 62
     0
100
AcDbLine
 10
117.871673
 20
-22.938228
 30
0.0
 11
118.5999999999999
 21
-21.0
 31
0.0
  0
LINE
  5
511
330
1E
100
AcDbEntity
  8
002
 62
     0
100
AcDbLine
 10
118.5999999999999
 20
-21.0
 30
0.0
 11
117.000137
 21
-22.314391
 31
0.0
  0
LINE
  5
512
330
1E
100
AcDbEntity
  8
002
 62
     0
100
AcDbLine
 10
116.38511
 20
-22.97714399999999
 30
0.0
 11
117.0
 21
-21.0
 31
0.0
  0
LINE
  5
513
330
1E
100
AcDbEntity
  8
002
 62
     0
100
AcDbLine
 10
117.0
 20
-21.0
 30
0.0
 11
115.4789179999999
 21
-22.404812
 31
0.0
  0
LWPOLYLINE
  5
514
330
1E
100
AcDbEntity
  8
002
 62
     0
100
AcDbPolyline
 90
        3
 70
     0
 43
0.0
 10
6.911378
 20
36.074784
 10
6.635555
 20
34.02268499999999
 10
7.900474
 20
35.661943
  0
LINE
  5
515
330
1E
100
AcDbEntity
  8
002
 62
     0
100
AcDbLine
 10
6.635555
 20
34.02268499999999
 30
0.0
 11
30.0
 21
90.0
 31
0.0
  0
LINE
  5
516
330
1E
100
AcDbEntity
  8
002
 62
     0
100
AcDbLine
 10
30.0
 20
90.0
 30
0.0
 11
54.75
 21
90.0
 31
0.0
  0
TEXT
  5
517
330
1E
100
AcDbEntity
  8
002
 62
     0
100
AcDbText
 10
32.75
 20
91.0
 30
0.0
 40
3.2
  1
８－φ３．３穴
 41
0.716146
100
AcDbText
  0
LINE
  5
518
330
1E
100
AcDbEntity
  8
002
 62
     0
100
AcDbLine
 10
57.0
 20
54.0
 30
0.0
 11
81.0
 21
54.0
 31
0.0
  0
LINE
  5
519
330
1E
100
AcDbEntity
  8
002
 62
     0
100
AcDbLine
 10
54.0
 20
61.0
 30
0.0
 11
81.0
 21
61.0
 31
0.0
  0
LINE
  5
51A
330
1E
100
AcDbEntity
  8
002
 62
     0
100
AcDbLine
 10
80.0
 20
54.0
 30
0.0
 11
80.0
 21
61.0
 31
0.0
  0
INSERT
  5
51B
330
1E
100
AcDbEntity
  8
002
 62
     0
100
AcDbBlockReference
  2
ARROW
 10
80.0
 20
54.0
 30
0.0
 50
270.0
  0
INSERT
  5
51C
330
1E
100
AcDbEntity
  8
002
 62
     0
100
AcDbBlockReference
  2
ARROW
 10
80.0
 20
61.0
 30
0.0
 50
90.0
  0
TEXT
  5
51D
330
1E
100
AcDbEntity
  8
002
 62
     0
100
AcDbText
 10
79.0
 20
48.25
 30
0.0
 40
3.2
  1
7
 50
90.00000300000001
 41
0.859375
100
AcDbText
  0
LINE
  5
51E
330
1E
100
AcDbEntity
  8
002
 62
     0
100
AcDbLine
 10
80.0
 20
54.0
 30
0.0
 11
80.0
 21
48.25
 31
0.0
  0
LINE
  5
51F
330
1E
100
AcDbEntity
  8
002
 62
     0
100
AcDbLine
 10
80.0
 20
61.0
 30
0.0
 11
80.0
 21
64.0
 31
0.0
  0
LINE
  5
520
330
1E
100
AcDbEntity
  8
002
 62
     0
100
AcDbLine
 10
47.0
 20
80.53589800000002
 30
0.0
 11
45.0
 21
80.0
 31
0.0
  0
LINE
  5
521
330
1E
100
AcDbEntity
  8
002
 62
     0
100
AcDbLine
 10
45.0
 20
80.0
 30
0.0
 11
47.0
 21
79.46410199999998
 31
0.0
  0
ENDSEC
  0
SECTION
  2
OBJECTS
  0
DICTIONARY
  5
C
330
0
100
AcDbDictionary
281
     1
  3
ACAD_GROUP
350
D
  3
ACAD_LAYOUT
350
19
  3
ACAD_MLINESTYLE
350
16
  3
ACAD_PLOTSETTINGS
350
18
  3
ACAD_PLOTSTYLENAME
350
E
  3
AcDbVariableDictionary
350
3E8
  0
DICTIONARY
  5
D
102
{ACAD_REACTORS
330
C
102
}
330
C
100
AcDbDictionary
281
     1
  0
DICTIONARY
  5
19
102
{ACAD_REACTORS
330
C
102
}
330
C
100
AcDbDictionary
281
     1
  3
Model
350
21
  3
ﾚｲｱｳﾄ1
350
1D
  0
DICTIONARY
  5
16
102
{ACAD_REACTORS
330
C
102
}
330
C
100
AcDbDictionary
281
     1
  3
Standard
350
17
  0
DICTIONARY
  5
18
102
{ACAD_REACTORS
330
C
102
}
330
C
100
AcDbDictionary
281
     1
  0
ACDBDICTIONARYWDFLT
  5
E
102
{ACAD_REACTORS
330
C
102
}
330
C
100
AcDbDictionary
281
     1
  3
Normal
350
F
100
AcDbDictionaryWithDefault
340
F
  0
DICTIONARY
  5
3E8
102
{ACAD_REACTORS
330
C
102
}
330
C
100
AcDbDictionary
281
     1
  3
DIMASSOC
350
3E9
  0
LAYOUT
  5
21
102
{ACAD_REACTORS
330
19
102
}
330
19
100
AcDbPlotSettings
  1

  2
RICOH IPSiO NX860e RPDL
  4
A4
  6

 40
5.873749732971191
 41
4.815398216247558
 42
7.56707763671875
 43
5.873748779296875
 44
209.9733276367186
 45
296.9683227539062
 46
0.0
 47
0.0
 48
-197.5
 49
-136.0
140
197.5
141
144.0
142
1.0
143
36.18739898152682
 70
 11952
 72
     0
 73
     1
 74
     4
  7

 75
     0
147
0.0276339286089748
148
5016.5
149
3454.399999999999
100
AcDbLayout
  1
Model
 70
     1
 71
     0
 10
0.0
 20
0.0
 11
12.0
 21
9.0
 12
0.0
 22
0.0
 32
0.0
 14
0.0
 24
0.0
 34
0.0
 15
0.0
 25
0.0
 35
0.0
146
0.0
 13
0.0
 23
0.0
 33
0.0
 16
1.0
 26
0.0
 36
0.0
 17
0.0
 27
1.0
 37
0.0
 76
     0
330
1E
  0
LAYOUT
  5
1D
102
{ACAD_REACTORS
330
19
102
}
330
19
100
AcDbPlotSettings
  1

  2
RICOH IPSiO NX860e RPDL
  4

  6

 40
0.0
 41
0.0
 42
0.0
 43
0.0
 44
0.0
 45
0.0
 46
0.0
 47
0.0
 48
0.0
 49
0.0
140
0.0
141
0.0
142
1.0
143
1.0
 70
   688
 72
     0
 73
     0
 74
     5
  7

 75
    16
147
1.0
148
0.0
149
0.0
100
AcDbLayout
  1
ﾚｲｱｳﾄ1
 70
     1
 71
     1
 10
0.0
 20
0.0
 11
12.0
 21
9.0
 12
0.0
 22
0.0
 32
0.0
 14
1.000000000000000E+20
 24
1.000000000000000E+20
 34
1.000000000000000E+20
 15
-1.000000000000000E+20
 25
-1.000000000000000E+20
 35
-1.000000000000000E+20
146
0.0
 13
0.0
 23
0.0
 33
0.0
 16
1.0
 26
0.0
 36
0.0
 17
0.0
 27
1.0
 37
0.0
 76
     0
330
1A
  0
MLINESTYLE
  5
17
102
{ACAD_REACTORS
330
16
102
}
330
16
100
AcDbMlineStyle
  2
STANDARD
 70
     0
  3

 62
   256
 51
90.0
 52
90.0
 71
     2
 49
0.5
 62
   256
  6
BYLAYER
 49
-0.5
 62
   256
  6
BYLAYER
  0
ACDBPLACEHOLDER
  5
F
102
{ACAD_REACTORS
330
E
102
}
330
E
  0
DICTIONARYVAR
  5
3E9
102
{ACAD_REACTORS
330
3E8
102
}
330
3E8
100
DictionaryVariables
280
     0
  1
1
  0
ENDSEC
  0
EOF
