  0
SECTION
  2
HEADER
  9
$ACADVER
  1
AC1015
  9
$ACADMAINTVER
 70
    13
  9
$DWGCODEPAGE
  3
ANSI_932
  9
$INSBASE
 10
0.0
 20
0.0
 30
0.0
  9
$EXTMIN
 10
-136.0
 20
-93.20000001651742
 30
0.0
  9
$EXTMAX
 10
144.0
 20
100.5
 30
0.0
  9
$LIMMIN
 10
-136.0
 20
-92.5
  9
$LIMMAX
 10
144.0384485717913
 20
101.0365485290904
  9
$ORTHOMODE
 70
     0
  9
$REGENMODE
 70
     1
  9
$FILLMODE
 70
     1
  9
$QTEXTMODE
 70
     0
  9
$MIRRTEXT
 70
     1
  9
$LTSCALE
 40
4.666666999999998
  9
$ATTMODE
 70
     1
  9
$TEXTSIZE
 40
0.2
  9
$TRACEWID
 40
0.05
  9
$TEXTSTYLE
  7
STANDARD
  9
$CLAYER
  8
0
  9
$CELTYPE
  6
CONTINUOUS
  9
$CECOLOR
 62
   256
  9
$CELTSCALE
 40
1.0
  9
$DISPSILH
 70
     0
  9
$DIMSCALE
 40
1.0
  9
$DIMASZ
 40
0.18
  9
$DIMEXO
 40
0.0625
  9
$DIMDLI
 40
0.38
  9
$DIMRND
 40
0.0
  9
$DIMDLE
 40
0.0
  9
$DIMEXE
 40
0.18
  9
$DIMTP
 40
0.0
  9
$DIMTM
 40
0.0
  9
$DIMTXT
 40
0.18
  9
$DIMCEN
 40
0.09
  9
$DIMTSZ
 40
0.0
  9
$DIMTOL
 70
     0
  9
$DIMLIM
 70
     0
  9
$DIMTIH
 70
     1
  9
$DIMTOH
 70
     1
  9
$DIMSE1
 70
     0
  9
$DIMSE2
 70
     0
  9
$DIMTAD
 70
     0
  9
$DIMZIN
 70
     0
  9
$DIMBLK
  1

  9
$DIMASO
 70
     1
  9
$DIMSHO
 70
     1
  9
$DIMPOST
  1

  9
$DIMAPOST
  1

  9
$DIMALT
 70
     0
  9
$DIMALTD
 70
     2
  9
$DIMALTF
 40
25.4
  9
$DIMLFAC
 40
1.0
  9
$DIMTOFL
 70
     0
  9
$DIMTVP
 40
0.0
  9
$DIMTIX
 70
     0
  9
$DIMSOXD
 70
     0
  9
$DIMSAH
 70
     0
  9
$DIMBLK1
  1

  9
$DIMBLK2
  1

  9
$DIMSTYLE
  2
Standard
  9
$DIMCLRD
 70
     0
  9
$DIMCLRE
 70
     0
  9
$DIMCLRT
 70
     0
  9
$DIMTFAC
 40
1.0
  9
$DIMGAP
 40
0.09
  9
$DIMJUST
 70
     0
  9
$DIMSD1
 70
     0
  9
$DIMSD2
 70
     0
  9
$DIMTOLJ
 70
     1
  9
$DIMTZIN
 70
     0
  9
$DIMALTZ
 70
     0
  9
$DIMALTTZ
 70
     0
  9
$DIMUPT
 70
     0
  9
$DIMDEC
 70
     4
  9
$DIMTDEC
 70
     4
  9
$DIMALTU
 70
     2
  9
$DIMALTTD
 70
     2
  9
$DIMTXSTY
  7
STANDARD
  9
$DIMAUNIT
 70
     0
  9
$DIMADEC
 70
     0
  9
$DIMALTRND
 40
0.0
  9
$DIMAZIN
 70
     0
  9
$DIMDSEP
 70
    46
  9
$DIMATFIT
 70
     3
  9
$DIMFRAC
 70
     0
  9
$DIMLDRBLK
  1

  9
$DIMLUNIT
 70
     2
  9
$DIMLWD
 70
    -2
  9
$DIMLWE
 70
    -2
  9
$DIMTMOVE
 70
     0
  9
$LUNITS
 70
     2
  9
$LUPREC
 70
     4
  9
$SKETCHINC
 40
0.1
  9
$FILLETRAD
 40
0.0
  9
$AUNITS
 70
     0
  9
$AUPREC
 70
     0
  9
$MENU
  1
acad
  9
$ELEVATION
 40
0.0
  9
$PELEVATION
 40
0.0
  9
$THICKNESS
 40
0.0
  9
$LIMCHECK
 70
     0
  9
$CHAMFERA
 40
0.0
  9
$CHAMFERB
 40
0.0
  9
$CHAMFERC
 40
0.0
  9
$CHAMFERD
 40
0.0
  9
$SKPOLY
 70
     0
  9
$TDCREATE
 40
2313894.285194942
  9
$TDUCREATE
 40
2313893.910194942
  9
$TDUPDATE
 40
2455959.447906527
  9
$TDUUPDATE
 40
2455959.072906527
  9
$TDINDWG
 40
0.0022343519
  9
$TDUSRTIMER
 40
0.0022342708
  9
$USRTIMER
 70
     1
  9
$ANGBASE
 50
0.0
  9
$ANGDIR
 70
     0
  9
$PDMODE
 70
     0
  9
$PDSIZE
 40
0.0
  9
$PLINEWID
 40
0.0
  9
$SPLFRAME
 70
     0
  9
$SPLINETYPE
 70
     6
  9
$SPLINESEGS
 70
     8
  9
$HANDSEED
  5
3BF
  9
$SURFTAB1
 70
     6
  9
$SURFTAB2
 70
     6
  9
$SURFTYPE
 70
     6
  9
$SURFU
 70
     6
  9
$SURFV
 70
     6
  9
$UCSBASE
  2

  9
$UCSNAME
  2

  9
$UCSORG
 10
0.0
 20
0.0
 30
0.0
  9
$UCSXDIR
 10
1.0
 20
0.0
 30
0.0
  9
$UCSYDIR
 10
0.0
 20
1.0
 30
0.0
  9
$UCSORTHOREF
  2

  9
$UCSORTHOVIEW
 70
     0
  9
$UCSORGTOP
 10
0.0
 20
0.0
 30
0.0
  9
$UCSORGBOTTOM
 10
0.0
 20
0.0
 30
0.0
  9
$UCSORGLEFT
 10
0.0
 20
0.0
 30
0.0
  9
$UCSORGRIGHT
 10
0.0
 20
0.0
 30
0.0
  9
$UCSORGFRONT
 10
0.0
 20
0.0
 30
0.0
  9
$UCSORGBACK
 10
0.0
 20
0.0
 30
0.0
  9
$PUCSBASE
  2

  9
$PUCSNAME
  2

  9
$PUCSORG
 10
0.0
 20
0.0
 30
0.0
  9
$PUCSXDIR
 10
1.0
 20
0.0
 30
0.0
  9
$PUCSYDIR
 10
0.0
 20
1.0
 30
0.0
  9
$PUCSORTHOREF
  2

  9
$PUCSORTHOVIEW
 70
     0
  9
$PUCSORGTOP
 10
0.0
 20
0.0
 30
0.0
  9
$PUCSORGBOTTOM
 10
0.0
 20
0.0
 30
0.0
  9
$PUCSORGLEFT
 10
0.0
 20
0.0
 30
0.0
  9
$PUCSORGRIGHT
 10
0.0
 20
0.0
 30
0.0
  9
$PUCSORGFRONT
 10
0.0
 20
0.0
 30
0.0
  9
$PUCSORGBACK
 10
0.0
 20
0.0
 30
0.0
  9
$USERI1
 70
     0
  9
$USERI2
 70
     0
  9
$USERI3
 70
     0
  9
$USERI4
 70
     0
  9
$USERI5
 70
     0
  9
$USERR1
 40
0.0
  9
$USERR2
 40
0.0
  9
$USERR3
 40
0.0
  9
$USERR4
 40
0.0
  9
$USERR5
 40
0.0
  9
$WORLDVIEW
 70
     1
  9
$SHADEDGE
 70
     3
  9
$SHADEDIF
 70
    70
  9
$TILEMODE
 70
     1
  9
$MAXACTVP
 70
    64
  9
$PINSBASE
 10
0.0
 20
0.0
 30
0.0
  9
$PLIMCHECK
 70
     0
  9
$PEXTMIN
 10
1.000000000000000E+20
 20
1.000000000000000E+20
 30
1.000000000000000E+20
  9
$PEXTMAX
 10
-1.000000000000000E+20
 20
-1.000000000000000E+20
 30
-1.000000000000000E+20
  9
$PLIMMIN
 10
0.0
 20
0.0
  9
$PLIMMAX
 10
12.0
 20
9.0
  9
$UNITMODE
 70
     0
  9
$VISRETAIN
 70
     1
  9
$PLINEGEN
 70
     0
  9
$PSLTSCALE
 70
     1
  9
$TREEDEPTH
 70
  3020
  9
$CMLSTYLE
  2
Standard
  9
$CMLJUST
 70
     0
  9
$CMLSCALE
 40
1.0
  9
$PROXYGRAPHICS
 70
     1
  9
$MEASUREMENT
 70
     0
  9
$CELWEIGHT
370
    -1
  9
$ENDCAPS
280
     0
  9
$JOINSTYLE
280
     0
  9
$LWDISPLAY
290
     0
  9
$INSUNITS
 70
     0
  9
$HYPERLINKBASE
  1

  9
$STYLESHEET
  1

  9
$XEDIT
290
     1
  9
$CEPSNTYPE
380
     0
  9
$PSTYLEMODE
290
     1
  9
$FINGERPRINTGUID
  2
{A57057A3-8F5E-4B5F-A143-4E77423F8F81}
  9
$VERSIONGUID
  2
{0402302C-A86D-489F-9E7E-9C71AB6D6D88}
  9
$EXTNAMES
290
     1
  9
$PSVPSCALE
 40
0.0
  9
$OLESTARTUP
290
     0
  0
ENDSEC
  0
SECTION
  2
CLASSES
  0
CLASS
  1
ACDBDICTIONARYWDFLT
  2
AcDbDictionaryWithDefault
  3
AutoCAD 2000
 90
        0
280
     0
281
     0
  0
CLASS
  1
ACDBPLACEHOLDER
  2
AcDbPlaceHolder
  3
AutoCAD 2000
 90
        0
280
     0
281
     0
  0
CLASS
  1
LAYOUT
  2
AcDbLayout
  3
AutoCAD 2000
 90
        0
280
     0
281
     0
  0
CLASS
  1
DICTIONARYVAR
  2
AcDbDictionaryVar
  3
AutoCAD 2000
 90
        0
280
     0
281
     0
  0
ENDSEC
  0
SECTION
  2
TABLES
  0
TABLE
  2
VPORT
  5
8
330
0
100
AcDbSymbolTable
 70
     2
  0
VPORT
  5
3BE
330
8
100
AcDbSymbolTableRecord
100
AcDbViewportTableRecord
  2
*Active
 70
     0
 10
0.0
 20
0.0
 11
1.0
 21
1.0
 12
4.014952150916087
 22
3.91531885433784
 13
0.0
 23
0.0
 14
1.0
 24
1.0
 15
0.0
 25
0.0
 16
0.0
 26
0.0
 36
1.0
 17
0.0
 27
0.0
 37
0.0
 40
196.458152802161
 41
2.457142857142857
 42
50.0
 43
0.0
 44
0.0
 50
0.0
 51
0.0
 71
     0
 72
   100
 73
     1
 74
     1
 75
     0
 76
     0
 77
     0
 78
     0
281
     0
 65
     1
110
0.0
120
0.0
130
0.0
111
1.0
121
0.0
131
0.0
112
0.0
122
1.0
132
0.0
 79
     0
146
0.0
  0
ENDTAB
  0
TABLE
  2
LTYPE
  5
5
330
0
100
AcDbSymbolTable
 70
    25
  0
LTYPE
  5
13
330
5
100
AcDbSymbolTableRecord
100
AcDbLinetypeTableRecord
  2
ByBlock
 70
     0
  3

 72
    65
 73
     0
 40
0.0
  0
LTYPE
  5
14
330
5
100
AcDbSymbolTableRecord
100
AcDbLinetypeTableRecord
  2
ByLayer
 70
     0
  3

 72
    65
 73
     0
 40
0.0
  0
LTYPE
  5
15
330
5
100
AcDbSymbolTableRecord
100
AcDbLinetypeTableRecord
  2
CONTINUOUS
 70
     0
  3
Solid line
 72
    65
 73
     0
 40
0.0
  0
LTYPE
  5
22
330
5
100
AcDbSymbolTableRecord
100
AcDbLinetypeTableRecord
  2
DASHED
 70
     0
  3
DASHED
 72
    65
 73
     2
 40
0.75
 49
0.5
 74
     0
 49
-0.25
 74
     0
  0
LTYPE
  5
23
330
5
100
AcDbSymbolTableRecord
100
AcDbLinetypeTableRecord
  2
HIDDEN
 70
     0
  3
HIDDEN
 72
    65
 73
     2
 40
0.375
 49
0.25
 74
     0
 49
-0.125
 74
     0
  0
LTYPE
  5
24
330
5
100
AcDbSymbolTableRecord
100
AcDbLinetypeTableRecord
  2
CENTER
 70
     0
  3
CENTER
 72
    65
 73
     4
 40
2.0
 49
1.25
 74
     0
 49
-0.25
 74
     0
 49
0.25
 74
     0
 49
-0.25
 74
     0
  0
LTYPE
  5
25
330
5
100
AcDbSymbolTableRecord
100
AcDbLinetypeTableRecord
  2
PHANTOM
 70
     0
  3
PHANTOM
 72
    65
 73
     6
 40
2.5
 49
1.25
 74
     0
 49
-0.25
 74
     0
 49
0.25
 74
     0
 49
-0.25
 74
     0
 49
0.25
 74
     0
 49
-0.25
 74
     0
  0
LTYPE
  5
26
330
5
100
AcDbSymbolTableRecord
100
AcDbLinetypeTableRecord
  2
BORDER
 70
     0
  3
BORDER
 72
    65
 73
     6
 40
1.75
 49
0.5
 74
     0
 49
-0.25
 74
     0
 49
0.5
 74
     0
 49
-0.25
 74
     0
 49
0.0
 74
     0
 49
-0.25
 74
     0
  0
LTYPE
  5
27
330
5
100
AcDbSymbolTableRecord
100
AcDbLinetypeTableRecord
  2
BORDER2
 70
     0
  3
BORDER2
 72
    65
 73
     6
 40
0.875
 49
0.25
 74
     0
 49
-0.125
 74
     0
 49
0.25
 74
     0
 49
-0.125
 74
     0
 49
0.0
 74
     0
 49
-0.125
 74
     0
  0
LTYPE
  5
28
330
5
100
AcDbSymbolTableRecord
100
AcDbLinetypeTableRecord
  2
BORDERX2
 70
     0
  3
BORDERX2
 72
    65
 73
     6
 40
3.5
 49
1.0
 74
     0
 49
-0.5
 74
     0
 49
1.0
 74
     0
 49
-0.5
 74
     0
 49
0.0
 74
     0
 49
-0.5
 74
     0
  0
LTYPE
  5
29
330
5
100
AcDbSymbolTableRecord
100
AcDbLinetypeTableRecord
  2
CENTER2
 70
     0
  3
CENTER2
 72
    65
 73
     4
 40
1.125
 49
0.75
 74
     0
 49
-0.125
 74
     0
 49
0.125
 74
     0
 49
-0.125
 74
     0
  0
LTYPE
  5
2A
330
5
100
AcDbSymbolTableRecord
100
AcDbLinetypeTableRecord
  2
CENTERX2
 70
     0
  3
CENTERX2
 72
    65
 73
     4
 40
4.0
 49
2.5
 74
     0
 49
-0.5
 74
     0
 49
0.5
 74
     0
 49
-0.5
 74
     0
  0
LTYPE
  5
2B
330
5
100
AcDbSymbolTableRecord
100
AcDbLinetypeTableRecord
  2
DASHDOT
 70
     0
  3
DASHDOT
 72
    65
 73
     4
 40
1.0
 49
0.5
 74
     0
 49
-0.25
 74
     0
 49
0.0
 74
     0
 49
-0.25
 74
     0
  0
LTYPE
  5
2C
330
5
100
AcDbSymbolTableRecord
100
AcDbLinetypeTableRecord
  2
DASHDOT2
 70
     0
  3
DASHDOT2
 72
    65
 73
     4
 40
0.5
 49
0.25
 74
     0
 49
-0.125
 74
     0
 49
0.0
 74
     0
 49
-0.125
 74
     0
  0
LTYPE
  5
2D
330
5
100
AcDbSymbolTableRecord
100
AcDbLinetypeTableRecord
  2
DASHDOTX2
 70
     0
  3
DASHDOTX2
 72
    65
 73
     4
 40
2.0
 49
1.0
 74
     0
 49
-0.5
 74
     0
 49
0.0
 74
     0
 49
-0.5
 74
     0
  0
LTYPE
  5
2E
330
5
100
AcDbSymbolTableRecord
100
AcDbLinetypeTableRecord
  2
DASHED2
 70
     0
  3
DASHED2
 72
    65
 73
     2
 40
0.375
 49
0.25
 74
     0
 49
-0.125
 74
     0
  0
LTYPE
  5
2F
330
5
100
AcDbSymbolTableRecord
100
AcDbLinetypeTableRecord
  2
DASHEDX2
 70
     0
  3
DASHEDX2
 72
    65
 73
     2
 40
1.5
 49
1.0
 74
     0
 49
-0.5
 74
     0
  0
LTYPE
  5
30
330
5
100
AcDbSymbolTableRecord
100
AcDbLinetypeTableRecord
  2
DIVIDE
 70
     0
  3
DIVIDE
 72
    65
 73
     6
 40
1.25
 49
0.5
 74
     0
 49
-0.25
 74
     0
 49
0.0
 74
     0
 49
-0.25
 74
     0
 49
0.0
 74
     0
 49
-0.25
 74
     0
  0
LTYPE
  5
31
330
5
100
AcDbSymbolTableRecord
100
AcDbLinetypeTableRecord
  2
DIVIDE2
 70
     0
  3
DIVIDE2
 72
    65
 73
     6
 40
0.625
 49
0.25
 74
     0
 49
-0.125
 74
     0
 49
0.0
 74
     0
 49
-0.125
 74
     0
 49
0.0
 74
     0
 49
-0.125
 74
     0
  0
LTYPE
  5
32
330
5
100
AcDbSymbolTableRecord
100
AcDbLinetypeTableRecord
  2
DIVIDEX2
 70
     0
  3
DIVIDEX2
 72
    65
 73
     6
 40
2.5
 49
1.0
 74
     0
 49
-0.5
 74
     0
 49
0.0
 74
     0
 49
-0.5
 74
     0
 49
0.0
 74
     0
 49
-0.5
 74
     0
  0
LTYPE
  5
33
330
5
100
AcDbSymbolTableRecord
100
AcDbLinetypeTableRecord
  2
DOT
 70
     0
  3
DOT
 72
    65
 73
     2
 40
0.25
 49
0.0
 74
     0
 49
-0.25
 74
     0
  0
LTYPE
  5
34
330
5
100
AcDbSymbolTableRecord
100
AcDbLinetypeTableRecord
  2
DOT2
 70
     0
  3
DOT2
 72
    65
 73
     2
 40
0.125
 49
0.0
 74
     0
 49
-0.125
 74
     0
  0
LTYPE
  5
35
330
5
100
AcDbSymbolTableRecord
100
AcDbLinetypeTableRecord
  2
DOTX2
 70
     0
  3
DOTX2
 72
    65
 73
     2
 40
0.5
 49
0.0
 74
     0
 49
-0.5
 74
     0
  0
LTYPE
  5
36
330
5
100
AcDbSymbolTableRecord
100
AcDbLinetypeTableRecord
  2
HIDDEN2
 70
     0
  3
HIDDEN2
 72
    65
 73
     2
 40
0.1875
 49
0.125
 74
     0
 49
-0.0625
 74
     0
  0
LTYPE
  5
37
330
5
100
AcDbSymbolTableRecord
100
AcDbLinetypeTableRecord
  2
HIDDENX2
 70
     0
  3
HIDDENX2
 72
    65
 73
     2
 40
0.75
 49
0.5
 74
     0
 49
-0.25
 74
     0
  0
LTYPE
  5
38
330
5
100
AcDbSymbolTableRecord
100
AcDbLinetypeTableRecord
  2
PHANTOM2
 70
     0
  3
PHANTOM2
 72
    65
 73
     6
 40
1.25
 49
0.625
 74
     0
 49
-0.125
 74
     0
 49
0.125
 74
     0
 49
-0.125
 74
     0
 49
0.125
 74
     0
 49
-0.125
 74
     0
  0
LTYPE
  5
39
330
5
100
AcDbSymbolTableRecord
100
AcDbLinetypeTableRecord
  2
PHANTOMX2
 70
     0
  3
PHANTOMX2
 72
    65
 73
     6
 40
5.0
 49
2.5
 74
     0
 49
-0.5
 74
     0
 49
0.5
 74
     0
 49
-0.5
 74
     0
 49
0.5
 74
     0
 49
-0.5
 74
     0
  0
ENDTAB
  0
TABLE
  2
LAYER
  5
2
330
0
100
AcDbSymbolTable
 70
     6
  0
LAYER
  5
10
330
2
100
AcDbSymbolTableRecord
100
AcDbLayerTableRecord
  2
0
 70
     0
 62
     7
  6
CONTINUOUS
370
    -3
390
F
  0
LAYER
  5
3A
330
2
100
AcDbSymbolTableRecord
100
AcDbLayerTableRecord
  2
001
 70
     0
 62
     7
  6
CONTINUOUS
370
    -3
390
F
  0
LAYER
  5
3B
330
2
100
AcDbSymbolTableRecord
100
AcDbLayerTableRecord
  2
002
 70
     0
 62
     7
  6
CONTINUOUS
370
    -3
390
F
  0
LAYER
  5
3C
330
2
100
AcDbSymbolTableRecord
100
AcDbLayerTableRecord
  2
003
 70
     0
 62
     7
  6
CONTINUOUS
370
    -3
390
F
  0
LAYER
  5
3D
330
2
100
AcDbSymbolTableRecord
100
AcDbLayerTableRecord
  2
035
 70
     0
 62
     7
  6
CONTINUOUS
370
    -3
390
F
  0
LAYER
  5
3E
330
2
100
AcDbSymbolTableRecord
100
AcDbLayerTableRecord
  2
255
 70
     0
 62
     7
  6
CONTINUOUS
370
    -3
390
F
  0
ENDTAB
  0
TABLE
  2
STYLE
  5
3
330
0
100
AcDbSymbolTable
 70
     2
  0
STYLE
  5
11
330
3
100
AcDbSymbolTableRecord
100
AcDbTextStyleTableRecord
  2
STANDARD
 70
     0
 40
0.0
 41
1.0
 50
0.0
 71
     0
 42
0.2
  3
TXT
  4
BIGFONT
  0
STYLE
  5
3F
330
3
100
AcDbSymbolTableRecord
100
AcDbTextStyleTableRecord
  2
TATEGAKI
 70
     4
 40
1.0
 41
1.0
 50
0.0
 71
     0
 42
0.2
  3
TXT
  4
BIGFONT
  0
ENDTAB
  0
TABLE
  2
VIEW
  5
6
330
0
100
AcDbSymbolTable
 70
     0
  0
ENDTAB
  0
TABLE
  2
UCS
  5
7
330
0
100
AcDbSymbolTable
 70
     0
  0
ENDTAB
  0
TABLE
  2
APPID
  5
9
330
0
100
AcDbSymbolTable
 70
     1
  0
APPID
  5
12
330
9
100
AcDbSymbolTableRecord
100
AcDbRegAppTableRecord
  2
ACAD
 70
     0
  0
ENDTAB
  0
TABLE
  2
DIMSTYLE
  5
A
330
0
100
AcDbSymbolTable
 70
     1
100
AcDbDimStyleTable
 71
     0
  0
DIMSTYLE
105
23C
330
A
100
AcDbSymbolTableRecord
100
AcDbDimStyleTableRecord
  2
Standard
 70
     0
340
11
  0
ENDTAB
  0
TABLE
  2
BLOCK_RECORD
  5
1
330
0
100
AcDbSymbolTable
 70
    13
  0
BLOCK_RECORD
  5
1E
330
1
100
AcDbSymbolTableRecord
100
AcDbBlockTableRecord
  2
*Model_Space
340
21
  0
BLOCK_RECORD
  5
1A
330
1
100
AcDbSymbolTableRecord
100
AcDbBlockTableRecord
  2
*Paper_Space
340
1D
  0
BLOCK_RECORD
  5
43
330
1
100
AcDbSymbolTableRecord
100
AcDbBlockTableRecord
  2
PART0
340
0
  0
BLOCK_RECORD
  5
165
330
1
100
AcDbSymbolTableRecord
100
AcDbBlockTableRecord
  2
ARROW
340
0
102
{BLKREFS
331
172
331
173
331
17E
331
17F
331
18C
331
18D
331
198
331
199
331
1A4
331
1AF
331
1B0
331
1BB
331
1BC
331
1C7
331
1C8
331
1D3
331
1D4
331
1DF
331
1E0
331
1E9
331
378
331
379
331
37E
331
37F
331
384
331
385
331
38A
331
38B
331
390
331
391
331
396
331
397
331
39C
331
39D
331
3A0
331
3A6
331
3A7
331
3AE
331
3AF
331
3B4
102
}
  0
ENDTAB
  0
ENDSEC
  0
SECTION
  2
BLOCKS
  0
BLOCK
  5
1F
330
1E
100
AcDbEntity
  8
0
100
AcDbBlockBegin
  2
*Model_Space
 70
     0
 10
0.0
 20
0.0
 30
0.0
  3
*Model_Space
  1

  0
ENDBLK
  5
20
330
1E
100
AcDbEntity
  8
0
100
AcDbBlockEnd
  0
BLOCK
  5
1B
330
1A
100
AcDbEntity
 67
     1
  8
0
100
AcDbBlockBegin
  2
*Paper_Space
 70
     0
 10
0.0
 20
0.0
 30
0.0
  3
*Paper_Space
  1

  0
ENDBLK
  5
1C
330
1A
100
AcDbEntity
 67
     1
  8
0
100
AcDbBlockEnd
  0
BLOCK
  5
44
330
43
100
AcDbEntity
  8
001
100
AcDbBlockBegin
  2
PART0
 70
     0
 10
0.0
 20
0.0
 30
0.0
  3
PART0
  1

  0
LINE
  5
45
330
43
100
AcDbEntity
  8
255
 62
     3
100
AcDbLine
 10
136.0
 20
92.5
 30
0.0
 11
-136.0
 21
92.5
 31
0.0
  0
TEXT
  5
46
330
43
100
AcDbEntity
  8
255
 62
     3
100
AcDbText
 10
142.1999999999998
 20
33.5
 30
0.0
 40
4.0
  1
図番
 50
90.00000300000001
 41
0.833333
100
AcDbText
  0
LINE
  5
47
330
43
100
AcDbEntity
  8
255
 62
     3
100
AcDbLine
 10
144.0
 20
92.5
 30
0.0
 11
144.0
 21
31.5
 31
0.0
  0
LINE
  5
48
330
43
100
AcDbEntity
  8
255
 62
     3
100
AcDbLine
 10
136.0
 20
43.5
 30
0.0
 11
144.0
 21
43.5
 31
0.0
  0
LINE
  5
49
330
43
100
AcDbEntity
  8
255
 62
     3
100
AcDbLine
 10
144.0
 20
31.5
 30
0.0
 11
136.0
 21
31.5
 31
0.0
  0
LINE
  5
4A
330
43
100
AcDbEntity
  8
255
 62
     3
100
AcDbLine
 10
136.0
 20
92.5
 30
0.0
 11
144.0
 21
92.5
 31
0.0
  0
TEXT
  5
4B
330
43
100
AcDbEntity
  8
255
 62
     3
100
AcDbText
 10
122.65
 20
93.34999999999999
 30
0.0
 40
6.299999999999998
  1
A4
100
AcDbText
  0
LINE
  5
4C
330
43
100
AcDbEntity
  8
255
 62
     3
100
AcDbLine
 10
121.0
 20
100.5
 30
0.0
 11
121.0
 21
92.5
 31
0.0
  0
LINE
  5
4D
330
43
100
AcDbEntity
  8
255
 62
     3
100
AcDbLine
 10
136.0
 20
100.5
 30
0.0
 11
121.0
 21
100.5
 31
0.0
  0
LINE
  5
4E
330
43
100
AcDbEntity
  8
255
 62
     3
100
AcDbLine
 10
136.0
 20
100.5
 30
0.0
 11
136.0
 21
92.5
 31
0.0
  0
LINE
  5
4F
330
43
100
AcDbEntity
  8
255
 62
     3
100
AcDbLine
 10
-76.0
 20
100.5
 30
0.0
 11
-76.0
 21
92.5
 31
0.0
  0
LINE
  5
50
330
43
100
AcDbEntity
  8
255
 62
     3
100
AcDbLine
 10
-76.0
 20
100.5
 30
0.0
 11
-136.0
 21
100.5
 31
0.0
  0
LINE
  5
51
330
43
100
AcDbEntity
  8
255
 62
     3
100
AcDbLine
 10
-91.0
 20
100.5
 30
0.0
 11
-91.0
 21
92.5
 31
0.0
  0
LINE
  5
52
330
43
100
AcDbEntity
  8
255
 62
     3
100
AcDbLine
 10
-106.0
 20
100.5
 30
0.0
 11
-106.0
 21
92.5
 31
0.0
  0
LINE
  5
53
330
43
100
AcDbEntity
  8
255
 62
     3
100
AcDbLine
 10
-121.0
 20
100.5
 30
0.0
 11
-121.0
 21
92.5
 31
0.0
  0
LINE
  5
54
330
43
100
AcDbEntity
  8
255
 62
     3
100
AcDbLine
 10
-136.0
 20
92.5
 30
0.0
 11
-136.0
 21
100.5
 31
0.0
  0
TEXT
  5
55
330
43
100
AcDbEntity
  8
255
 62
     3
100
AcDbText
 10
119.4
 20
-59.6
 30
0.0
 40
4.0
  1
備考
 41
0.833333
100
AcDbText
  0
TEXT
  5
56
330
43
100
AcDbEntity
  8
255
 62
     3
100
AcDbText
 10
65.4
 20
-59.4
 30
0.0
 40
4.0
  1
個数
 41
0.833333
100
AcDbText
  0
TEXT
  5
57
330
43
100
AcDbEntity
  8
255
 62
     3
100
AcDbText
 10
15.4
 20
-59.4
 30
0.0
 40
4.0
  1
品名
 41
0.833333
100
AcDbText
  0
TEXT
  5
58
330
43
100
AcDbEntity
  8
255
 62
     3
100
AcDbText
 10
-20.6
 20
-59.4
 30
0.0
 40
4.0
  1
図番
 41
0.833333
100
AcDbText
  0
TEXT
  5
59
330
43
100
AcDbEntity
  8
255
 62
     3
100
AcDbText
 10
-32.0
 20
-59.4
 30
0.0
 40
4.0
  1
部番
 41
0.833333
100
AcDbText
  0
TEXT
  5
5A
330
43
100
AcDbEntity
  8
255
 62
     3
100
AcDbText
 10
-134.5999999999999
 20
-81.0
 30
0.0
 40
4.0
  1
記号
 41
0.833333
100
AcDbText
  0
TEXT
  5
5B
330
43
100
AcDbEntity
  8
255
 62
     3
100
AcDbText
 10
-74.59999999999998
 20
-81.0
 30
0.0
 40
4.0
  1
年月日
 41
0.833333
100
AcDbText
  0
TEXT
  5
5C
330
43
100
AcDbEntity
  8
255
 62
     3
100
AcDbText
 10
-59.0
 20
-81.0
 30
0.0
 40
4.0
  1
氏名
 41
0.833333
100
AcDbText
  0
TEXT
  5
5D
330
43
100
AcDbEntity
  8
255
 62
     3
100
AcDbText
 10
-45.2
 20
-81.0
 30
0.0
 40
4.0
  1
承認
 41
0.833333
100
AcDbText
  0
TEXT
  5
5E
330
43
100
AcDbEntity
  8
255
 62
     3
100
AcDbText
 10
67.0
 20
-62.0
 30
0.0
 40
4.0
  1
図名
 50
0.0000010000000028
 41
0.833333
 51
1.570796
  7
TATEGAKI
100
AcDbText
  0
TEXT
  5
5F
330
43
100
AcDbEntity
  8
255
 62
     3
100
AcDbText
 10
67.0
 20
-73.0
 30
0.0
 40
4.0
  1
図番
 50
0.0000010000000028
 41
0.833333
 51
1.570796
  7
TATEGAKI
100
AcDbText
  0
TEXT
  5
60
330
43
100
AcDbEntity
  8
255
 62
     3
100
AcDbText
 10
43.0
 20
-78.0
 30
0.0
 40
4.0
  1
設計
 50
0.0000010000000028
 41
0.833333
 51
1.570796
  7
TATEGAKI
100
AcDbText
  0
TEXT
  5
61
330
43
100
AcDbEntity
  8
255
 62
     3
100
AcDbText
 10
17.0
 20
-78.0
 30
0.0
 40
4.0
  1
検図
 50
0.0000010000000028
 41
0.833333
 51
1.570796
  7
TATEGAKI
100
AcDbText
  0
TEXT
  5
62
330
43
100
AcDbEntity
  8
255
 62
     3
100
AcDbText
 10
-7.0
 20
-62.0
 30
0.0
 40
4.0
  1
材質
 50
0.0000010000000028
 41
0.833333
 51
1.570796
  7
TATEGAKI
100
AcDbText
  0
TEXT
  5
63
330
43
100
AcDbEntity
  8
255
 62
     3
100
AcDbText
 10
-7.0
 20
-78.0
 30
0.0
 40
4.0
  1
承認
 50
0.0000010000000028
 41
0.833333
 51
1.570796
  7
TATEGAKI
100
AcDbText
  0
TEXT
  5
64
330
43
100
AcDbEntity
  8
255
 62
     3
100
AcDbText
 10
-31.0
 20
-62.0
 30
0.0
 40
4.0
  1
図法
 50
0.0000010000000028
 41
0.833333
 51
1.570796
  7
TATEGAKI
100
AcDbText
  0
TEXT
  5
65
330
43
100
AcDbEntity
  8
255
 62
     3
100
AcDbText
 10
-31.0
 20
-73.0
 30
0.0
 40
4.0
  1
尺度
 50
0.0000010000000028
 41
0.833333
 51
1.570796
  7
TATEGAKI
100
AcDbText
  0
TEXT
  5
66
330
43
100
AcDbEntity
  8
255
 62
     3
100
AcDbText
 10
-31.0
 20
-83.49999999999999
 30
0.0
 40
4.0
  1
単位
 50
0.0000010000000028
 41
0.833333
 51
1.570796
  7
TATEGAKI
100
AcDbText
  0
TEXT
  5
67
330
43
100
AcDbEntity
  8
255
 62
     3
100
AcDbText
 10
-73.0
 20
-83.0
 30
0.0
 40
3.0
  1
許容差
 50
0.0000010000000028
 41
0.833333
 51
1.570796
  7
TATEGAKI
100
AcDbText
  0
TEXT
  5
68
330
43
100
AcDbEntity
  8
255
 62
     3
100
AcDbText
 10
-131.0
 20
-83.0
 30
0.0
 40
3.0
  1
製品名
 50
0.0000010000000028
 41
0.833333
 51
1.570796
  7
TATEGAKI
100
AcDbText
  0
TEXT
  5
69
330
43
100
AcDbEntity
  8
255
 62
     3
100
AcDbText
 10
-109.2
 20
-81.0
 30
0.0
 40
4.0
  1
変更記事
 41
0.833333
100
AcDbText
  0
TEXT
  5
6A
330
43
100
AcDbEntity
  8
255
 62
     3
100
AcDbText
 10
101.4
 20
-59.4
 30
0.0
 40
4.0
  1
寸法
 41
0.833333
100
AcDbText
  0
TEXT
  5
6B
330
43
100
AcDbEntity
  8
255
 62
     3
100
AcDbText
 10
83.40000000000001
 20
-59.4
 30
0.0
 40
4.0
  1
材質
 41
0.833333
100
AcDbText
  0
LINE
  5
6C
330
43
100
AcDbEntity
  8
255
 62
     3
100
AcDbLine
 10
-136.0
 20
-54.5
 30
0.0
 11
136.0
 21
-54.5
 31
0.0
  0
LINE
  5
6D
330
43
100
AcDbEntity
  8
255
 62
     3
100
AcDbLine
 10
-136.0
 20
-92.5
 30
0.0
 11
136.0
 21
-92.5
 31
0.0
  0
LINE
  5
6E
330
43
100
AcDbEntity
  8
255
 62
     3
100
AcDbLine
 10
136.0
 20
-82.5
 30
0.0
 11
46.0
 21
-82.5
 31
0.0
  0
LINE
  5
6F
330
43
100
AcDbEntity
  8
255
 62
     3
100
AcDbLine
 10
64.0
 20
-54.5
 30
0.0
 11
64.0
 21
-92.5
 31
0.0
  0
LINE
  5
70
330
43
100
AcDbEntity
  8
255
 62
     3
100
AcDbLine
 10
70.0
 20
-60.5
 30
0.0
 11
70.0
 21
-82.5
 31
0.0
  0
LINE
  5
71
330
43
100
AcDbEntity
  8
255
 62
     3
100
AcDbLine
 10
82.0
 20
-54.5
 30
0.0
 11
82.0
 21
-60.5
 31
0.0
  0
LINE
  5
72
330
43
100
AcDbEntity
  8
255
 62
     3
100
AcDbLine
 10
100.0
 20
-54.5
 30
0.0
 11
100.0
 21
-60.5
 31
0.0
  0
LINE
  5
73
330
43
100
AcDbEntity
  8
255
 62
     3
100
AcDbLine
 10
118.0
 20
-54.5
 30
0.0
 11
118.0
 21
-60.5
 31
0.0
  0
LINE
  5
74
330
43
100
AcDbEntity
  8
255
 62
     3
100
AcDbLine
 10
136.0
 20
-92.5
 30
0.0
 11
136.0
 21
-54.5
 31
0.0
  0
LINE
  5
75
330
43
100
AcDbEntity
  8
255
 62
     3
100
AcDbLine
 10
46.0
 20
-71.5
 30
0.0
 11
46.0
 21
-92.5
 31
0.0
  0
LINE
  5
76
330
43
100
AcDbEntity
  8
255
 62
     3
100
AcDbLine
 10
136.0
 20
-71.5
 30
0.0
 11
-34.0
 21
-71.5
 31
0.0
  0
LINE
  5
77
330
43
100
AcDbEntity
  8
255
 62
     3
100
AcDbLine
 10
40.0
 20
-71.5
 30
0.0
 11
40.0
 21
-92.5
 31
0.0
  0
LINE
  5
78
330
43
100
AcDbEntity
  8
255
 62
     3
100
AcDbLine
 10
40.0
 20
-82.5
 30
0.0
 11
20.0
 21
-82.5
 31
0.0
  0
LINE
  5
79
330
43
100
AcDbEntity
  8
255
 62
     3
100
AcDbLine
 10
20.0
 20
-71.5
 30
0.0
 11
20.0
 21
-92.5
 31
0.0
  0
LINE
  5
7A
330
43
100
AcDbEntity
  8
255
 62
     3
100
AcDbLine
 10
14.0
 20
-71.5
 30
0.0
 11
14.0
 21
-92.5
 31
0.0
  0
LINE
  5
7B
330
43
100
AcDbEntity
  8
255
 62
     3
100
AcDbLine
 10
14.0
 20
-82.5
 30
0.0
 11
-4.0
 21
-82.5
 31
0.0
  0
LINE
  5
7C
330
43
100
AcDbEntity
  8
255
 62
     3
100
AcDbLine
 10
-4.0
 20
-60.5
 30
0.0
 11
-4.0
 21
-92.5
 31
0.0
  0
LINE
  5
7D
330
43
100
AcDbEntity
  8
255
 62
     3
100
AcDbLine
 10
-10.0
 20
-60.5
 30
0.0
 11
-10.0
 21
-92.5
 31
0.0
  0
LINE
  5
7E
330
43
100
AcDbEntity
  8
255
 62
     3
100
AcDbLine
 10
-34.0
 20
-82.5
 30
0.0
 11
-10.0
 21
-82.5
 31
0.0
  0
LINE
  5
7F
330
43
100
AcDbEntity
  8
255
 62
     3
100
AcDbLine
 10
-28.0
 20
-60.5
 30
0.0
 11
-28.0
 21
-92.5
 31
0.0
  0
LINE
  5
80
330
43
100
AcDbEntity
  8
255
 62
     3
100
AcDbLine
 10
136.0
 20
-60.5
 30
0.0
 11
-34.0
 21
-60.5
 31
0.0
  0
LINE
  5
81
330
43
100
AcDbEntity
  8
255
 62
     3
100
AcDbLine
 10
-22.0
 20
-54.5
 30
0.0
 11
-22.0
 21
-60.5
 31
0.0
  0
LINE
  5
82
330
43
100
AcDbEntity
  8
255
 62
     3
100
AcDbLine
 10
14.0
 20
-54.5
 30
0.0
 11
14.0
 21
-60.5
 31
0.0
  0
LINE
  5
83
330
43
100
AcDbEntity
  8
255
 62
     3
100
AcDbLine
 10
-34.0
 20
-61.5
 30
0.0
 11
-136.0
 21
-61.5
 31
0.0
  0
LINE
  5
84
330
43
100
AcDbEntity
  8
255
 62
     3
100
AcDbLine
 10
-48.0
 20
-54.5
 30
0.0
 11
-48.0
 21
-82.5
 31
0.0
  0
LINE
  5
85
330
43
100
AcDbEntity
  8
255
 62
     3
100
AcDbLine
 10
-62.0
 20
-54.5
 30
0.0
 11
-62.0
 21
-82.5
 31
0.0
  0
LINE
  5
86
330
43
100
AcDbEntity
  8
255
 62
     3
100
AcDbLine
 10
-34.0
 20
-68.5
 30
0.0
 11
-136.0
 21
-68.5
 31
0.0
  0
LINE
  5
87
330
43
100
AcDbEntity
  8
255
 62
     3
100
AcDbLine
 10
-126.0
 20
-54.5
 30
0.0
 11
-126.0
 21
-92.5
 31
0.0
  0
LINE
  5
88
330
43
100
AcDbEntity
  8
255
 62
     3
100
AcDbLine
 10
-76.0
 20
-54.5
 30
0.0
 11
-76.0
 21
-92.5
 31
0.0
  0
LINE
  5
89
330
43
100
AcDbEntity
  8
255
 62
     3
100
AcDbLine
 10
-34.0
 20
-75.5
 30
0.0
 11
-136.0
 21
-75.5
 31
0.0
  0
LINE
  5
8A
330
43
100
AcDbEntity
  8
255
 62
     3
100
AcDbLine
 10
-34.0
 20
-82.5
 30
0.0
 11
-136.0
 21
-82.5
 31
0.0
  0
LINE
  5
8B
330
43
100
AcDbEntity
  8
255
 62
     3
100
AcDbLine
 10
-70.0
 20
-82.5
 30
0.0
 11
-70.0
 21
-92.5
 31
0.0
  0
LINE
  5
8C
330
43
100
AcDbEntity
  8
255
 62
     3
100
AcDbLine
 10
-34.0
 20
-54.5
 30
0.0
 11
-34.0
 21
-92.5
 31
0.0
  0
LINE
  5
8D
330
43
100
AcDbEntity
  8
255
 62
     3
100
AcDbLine
 10
80.15068799999998
 20
-90.011004
 30
0.0
 11
77.070688
 21
-90.011004
 31
0.0
  0
LINE
  5
8E
330
43
100
AcDbEntity
  8
255
 62
     3
100
AcDbLine
 10
85.870688
 20
-87.731004
 30
0.0
 11
85.870688
 21
-90.011004
 31
0.0
  0
LINE
  5
8F
330
43
100
AcDbEntity
  8
255
 62
     3
100
AcDbLine
 10
86.670688
 20
-90.011004
 30
0.0
 11
86.670688
 21
-86.811004
 31
0.0
  0
LINE
  5
90
330
43
100
AcDbEntity
  8
255
 62
     3
100
AcDbLine
 10
82.91068800000003
 20
-86.811004
 30
0.0
 11
82.91068800000003
 21
-90.011004
 31
0.0
  0
LINE
  5
91
330
43
100
AcDbEntity
  8
255
 62
     3
100
AcDbLine
 10
84.83068799999998
 20
-90.011004
 30
0.0
 11
84.83068799999998
 21
-87.731004
 31
0.0
  0
LINE
  5
92
330
43
100
AcDbEntity
  8
255
 62
     3
100
AcDbLine
 10
87.710688
 20
-88.65100400000001
 30
0.0
 11
87.710688
 21
-90.011004
 31
0.0
  0
LINE
  5
93
330
43
100
AcDbEntity
  8
255
 62
     3
100
AcDbLine
 10
89.630688
 20
-90.011004
 30
0.0
 11
89.630688
 21
-89.371004
 31
0.0
  0
LINE
  5
94
330
43
100
AcDbEntity
  8
255
 62
     3
100
AcDbLine
 10
78.55068799999997
 20
-87.291004
 30
0.0
 11
81.070688
 21
-87.291004
 31
0.0
  0
LINE
  5
95
330
43
100
AcDbEntity
  8
255
 62
     3
100
AcDbLine
 10
79.590688
 20
-89.53100400000002
 30
0.0
 11
77.070688
 21
-89.53100400000002
 31
0.0
  0
LINE
  5
96
330
43
100
AcDbEntity
  8
255
 62
     3
100
AcDbLine
 10
80.15068799999998
 20
-88.17100400000002
 30
0.0
 11
78.55068799999997
 21
-88.17100400000002
 31
0.0
  0
LINE
  5
97
330
43
100
AcDbEntity
  8
255
 62
     3
100
AcDbLine
 10
79.590688
 20
-88.65100400000001
 30
0.0
 11
77.990688
 21
-88.65100400000001
 31
0.0
  0
LINE
  5
98
330
43
100
AcDbEntity
  8
255
 62
     3
100
AcDbLine
 10
74.56278199999998
 20
-89.893446
 30
0.0
 11
75.241167
 21
-89.21506200000001
 31
0.0
  0
LINE
  5
99
330
43
100
AcDbEntity
  8
255
 62
     3
100
AcDbLine
 10
74.21527600000001
 20
-89.90154100000003
 30
0.0
 11
75.249262
 21
-88.86755500000004
 31
0.0
  0
LINE
  5
9A
330
43
100
AcDbEntity
  8
255
 62
     3
100
AcDbLine
 10
73.87586500000002
 20
-89.90154100000003
 30
0.0
 11
75.249262
 21
-88.52814399999996
 31
0.0
  0
LINE
  5
9B
330
43
100
AcDbEntity
  8
255
 62
     3
100
AcDbLine
 10
73.53645300000002
 20
-89.90154100000003
 30
0.0
 11
75.249262
 21
-88.18873299999998
 31
0.0
  0
LINE
  5
9C
330
43
100
AcDbEntity
  8
255
 62
     3
100
AcDbLine
 10
73.19704200000002
 20
-89.90154100000003
 30
0.0
 11
75.249262
 21
-87.849321
 31
0.0
  0
LINE
  5
9D
330
43
100
AcDbEntity
  8
255
 62
     3
100
AcDbLine
 10
72.85763100000001
 20
-89.90154100000003
 30
0.0
 11
75.249262
 21
-87.50990999999997
 31
0.0
  0
LINE
  5
9E
330
43
100
AcDbEntity
  8
255
 62
     3
100
AcDbLine
 10
72.51822
 20
-89.90154100000003
 30
0.0
 11
75.249262
 21
-87.17049899999997
 31
0.0
  0
LINE
  5
9F
330
43
100
AcDbEntity
  8
255
 62
     3
100
AcDbLine
 10
72.17880799999997
 20
-89.90154100000003
 30
0.0
 11
75.249262
 21
-86.83108799999997
 31
0.0
  0
LINE
  5
A0
330
43
100
AcDbEntity
  8
255
 62
     3
100
AcDbLine
 10
71.83939699999998
 20
-89.90154100000003
 30
0.0
 11
75.249262
 21
-86.491676
 31
0.0
  0
LINE
  5
A1
330
43
100
AcDbEntity
  8
255
 62
     3
100
AcDbLine
 10
71.49998599999998
 20
-89.90154100000003
 30
0.0
 11
75.249262
 21
-86.152265
 31
0.0
  0
LINE
  5
A2
330
43
100
AcDbEntity
  8
255
 62
     3
100
AcDbLine
 10
71.160575
 20
-89.90154100000003
 30
0.0
 11
75.08421899999998
 21
-85.97789699999998
 31
0.0
  0
LINE
  5
A3
330
43
100
AcDbEntity
  8
255
 62
     3
100
AcDbLine
 10
70.151028
 20
-89.512912
 30
0.0
 11
73.762399
 21
-85.90154100000004
 31
0.0
  0
LINE
  5
A4
330
43
100
AcDbEntity
  8
255
 62
     3
100
AcDbLine
 10
68.634702
 20
-89.54237500000003
 30
0.0
 11
72.26749599999997
 21
-85.90958099999998
 31
0.0
  0
LINE
  5
A5
330
43
100
AcDbEntity
  8
255
 62
     3
100
AcDbLine
 10
71.660593
 20
-86.29020999999999
 30
0.0
 11
68.049262
 21
-89.90154100000003
 31
0.0
  0
LINE
  5
A6
330
43
100
AcDbEntity
  8
255
 62
     3
100
AcDbLine
 10
72.841181
 20
-86.37021
 30
0.0
 11
69.245931
 21
-89.96546
 31
0.0
  0
ARC
  5
A7
330
43
100
AcDbEntity
  8
255
 62
     3
100
AcDbCircle
 10
73.972552
 20
-87.501581
 30
0.0
 40
1.6
100
AcDbArc
 50
98.130102
 51
135.0
  0
ARC
  5
A8
330
43
100
AcDbEntity
  8
255
 62
     3
100
AcDbCircle
 10
67.503331
 20
-88.411004
 30
0.0
 40
1.6
100
AcDbArc
 50
289.158067
 51
315.0
  0
ARC
  5
A9
330
43
100
AcDbEntity
  8
255
 62
     3
100
AcDbCircle
 10
72.791964
 20
-87.42158100000002
 30
0.0
 40
1.6
100
AcDbArc
 50
109.1580669999999
 51
135.0
  0
LINE
  5
AA
330
43
100
AcDbEntity
  8
255
 62
     3
100
AcDbLine
 10
69.78813599999999
 20
-89.649529
 30
0.0
 11
73.39084799999998
 21
-86.04681799999999
 31
0.0
  0
ARC
  5
AB
330
43
100
AcDbEntity
  8
255
 62
     3
100
AcDbCircle
 10
75.572592
 20
-87.50154100000001
 30
0.0
 40
1.6
100
AcDbArc
 50
101.389514
 51
135.0
  0
LINE
  5
AC
330
43
100
AcDbEntity
  8
255
 62
     3
100
AcDbLine
 10
74.441221
 20
-86.37017
 30
0.0
 11
70.90985100000001
 21
-89.90154100000003
 31
0.0
  0
LINE
  5
AD
330
43
100
AcDbEntity
  8
255
 62
     3
100
AcDbLine
 10
70.90985100000001
 20
-89.90154100000003
 30
0.0
 11
74.44926200000002
 21
-89.90154100000003
 31
0.0
  0
ARC
  5
AE
330
43
100
AcDbEntity
  8
255
 62
     3
100
AcDbCircle
 10
74.44926200000002
 20
-89.10154099999996
 30
0.0
 40
0.8
100
AcDbArc
 50
270.0
 51
0.0
  0
LINE
  5
AF
330
43
100
AcDbEntity
  8
255
 62
     3
100
AcDbLine
 10
75.249262
 20
-89.10154099999996
 30
0.0
 11
75.249262
 21
-85.93455099999998
 31
0.0
  0
ARC
  5
B0
330
43
100
AcDbEntity
  8
255
 62
     3
100
AcDbCircle
 10
69.01965699999999
 20
-88.381541
 30
0.0
 40
1.6
100
AcDbArc
 50
278.130102
 51
315.0
  0
ARC
  5
B1
330
43
100
AcDbEntity
  8
255
 62
     3
100
AcDbCircle
 10
77.990688
 20
-87.731004
 30
0.0
 40
0.9200000000000001
100
AcDbArc
 50
90.0
 51
270.0
  0
ARC
  5
B2
330
43
100
AcDbEntity
  8
255
 62
     3
100
AcDbCircle
 10
79.590688
 20
-89.09100399999998
 30
0.0
 40
0.4400000000000003
100
AcDbArc
 50
270.0
 51
90.0
  0
ARC
  5
B3
330
43
100
AcDbEntity
  8
255
 62
     3
100
AcDbCircle
 10
78.55068799999997
 20
-87.731004
 30
0.0
 40
0.4400000000000003
100
AcDbArc
 50
90.0
 51
270.0
  0
ARC
  5
B4
330
43
100
AcDbEntity
  8
255
 62
     3
100
AcDbCircle
 10
80.15068799999998
 20
-89.09100399999998
 30
0.0
 40
0.9200000000000001
100
AcDbArc
 50
270.0
 51
90.0
  0
LINE
  5
B5
330
43
100
AcDbEntity
  8
255
 62
     3
100
AcDbLine
 10
82.91068800000003
 20
-90.011004
 30
0.0
 11
81.870688
 21
-90.011004
 31
0.0
  0
LINE
  5
B6
330
43
100
AcDbEntity
  8
255
 62
     3
100
AcDbLine
 10
83.27068800000002
 20
-87.291004
 30
0.0
 11
83.27068800000002
 21
-86.811004
 31
0.0
  0
LINE
  5
B7
330
43
100
AcDbEntity
  8
255
 62
     3
100
AcDbLine
 10
77.990688
 20
-86.811004
 30
0.0
 11
81.070688
 21
-86.811004
 31
0.0
  0
LINE
  5
B8
330
43
100
AcDbEntity
  8
255
 62
     3
100
AcDbLine
 10
82.91068800000003
 20
-86.811004
 30
0.0
 11
81.870688
 21
-86.811004
 31
0.0
  0
LINE
  5
B9
330
43
100
AcDbEntity
  8
255
 62
     3
100
AcDbLine
 10
81.870688
 20
-90.011004
 30
0.0
 11
81.870688
 21
-86.811004
 31
0.0
  0
LINE
  5
BA
330
43
100
AcDbEntity
  8
255
 62
     3
100
AcDbLine
 10
85.870688
 20
-90.011004
 30
0.0
 11
84.83068799999998
 21
-90.011004
 31
0.0
  0
LINE
  5
BB
330
43
100
AcDbEntity
  8
255
 62
     3
100
AcDbLine
 10
84.950688
 20
-86.811004
 30
0.0
 11
83.27068800000002
 21
-86.811004
 31
0.0
  0
LINE
  5
BC
330
43
100
AcDbEntity
  8
255
 62
     3
100
AcDbLine
 10
83.27068800000002
 20
-87.291004
 30
0.0
 11
84.39068799999999
 21
-87.291004
 31
0.0
  0
ARC
  5
BD
330
43
100
AcDbEntity
  8
255
 62
     3
100
AcDbCircle
 10
84.39068799999999
 20
-87.731004
 30
0.0
 40
0.4400000000000003
100
AcDbArc
 50
0.0
 51
90.0
  0
LINE
  5
BE
330
43
100
AcDbEntity
  8
255
 62
     3
100
AcDbLine
 10
90.67068799999999
 20
-90.011004
 30
0.0
 11
89.630688
 21
-90.011004
 31
0.0
  0
LINE
  5
BF
330
43
100
AcDbEntity
  8
255
 62
     3
100
AcDbLine
 10
89.630688
 20
-86.811004
 30
0.0
 11
90.67068799999999
 21
-86.811004
 31
0.0
  0
ARC
  5
C0
330
43
100
AcDbEntity
  8
255
 62
     3
100
AcDbCircle
 10
84.950688
 20
-87.731004
 30
0.0
 40
0.9200000000000001
100
AcDbArc
 50
0.0
 51
90.0
  0
LINE
  5
C1
330
43
100
AcDbEntity
  8
255
 62
     3
100
AcDbLine
 10
87.710688
 20
-88.17100400000002
 30
0.0
 11
89.39068799999999
 21
-88.17100400000002
 31
0.0
  0
LINE
  5
C2
330
43
100
AcDbEntity
  8
255
 62
     3
100
AcDbLine
 10
89.39068799999999
 20
-88.65100400000001
 30
0.0
 11
87.710688
 21
-88.65100400000001
 31
0.0
  0
LINE
  5
C3
330
43
100
AcDbEntity
  8
255
 62
     3
100
AcDbLine
 10
90.67068799999999
 20
-89.61100400000002
 30
0.0
 11
90.67068799999999
 21
-90.011004
 31
0.0
  0
ARC
  5
C4
330
43
100
AcDbEntity
  8
255
 62
     3
100
AcDbCircle
 10
89.470688
 20
-87.211004
 30
0.0
 40
1.199999999999999
100
AcDbArc
 50
270.0
 51
0.0
  0
ARC
  5
C5
330
43
100
AcDbEntity
  8
255
 62
     3
100
AcDbCircle
 10
89.470688
 20
-89.61100400000002
 30
0.0
 40
1.199999999999999
100
AcDbArc
 50
0.0
 51
90.0
  0
ARC
  5
C6
330
43
100
AcDbEntity
  8
255
 62
     3
100
AcDbCircle
 10
88.43068800000002
 20
-89.371004
 30
0.0
 40
1.199999999999999
100
AcDbArc
 50
0.0
 51
36.869898
  0
LINE
  5
C7
330
43
100
AcDbEntity
  8
255
 62
     3
100
AcDbLine
 10
89.630688
 20
-87.451004
 30
0.0
 11
89.630688
 21
-86.811004
 31
0.0
  0
ARC
  5
C8
330
43
100
AcDbEntity
  8
255
 62
     3
100
AcDbCircle
 10
88.43068800000002
 20
-87.451004
 30
0.0
 40
1.199999999999999
100
AcDbArc
 50
323.130102
 51
0.0
  0
LINE
  5
C9
330
43
100
AcDbEntity
  8
255
 62
     3
100
AcDbLine
 10
87.710688
 20
-90.011004
 30
0.0
 11
86.670688
 21
-90.011004
 31
0.0
  0
LINE
  5
CA
330
43
100
AcDbEntity
  8
255
 62
     3
100
AcDbLine
 10
90.67068799999999
 20
-86.811004
 30
0.0
 11
90.67068799999999
 21
-87.211004
 31
0.0
  0
LINE
  5
CB
330
43
100
AcDbEntity
  8
255
 62
     3
100
AcDbLine
 10
87.710688
 20
-86.811004
 30
0.0
 11
86.670688
 21
-86.811004
 31
0.0
  0
LINE
  5
CC
330
43
100
AcDbEntity
  8
255
 62
     3
100
AcDbLine
 10
87.710688
 20
-86.811004
 30
0.0
 11
87.710688
 21
-88.17100400000002
 31
0.0
  0
LINE
  5
CD
330
43
100
AcDbEntity
  8
255
 62
     3
100
AcDbLine
 10
81.070688
 20
-86.811004
 30
0.0
 11
81.070688
 21
-87.291004
 31
0.0
  0
LINE
  5
CE
330
43
100
AcDbEntity
  8
255
 62
     3
100
AcDbLine
 10
77.070688
 20
-89.53100400000002
 30
0.0
 11
77.070688
 21
-90.011004
 31
0.0
  0
TEXT
  5
CF
330
43
100
AcDbEntity
  8
255
 62
     3
100
AcDbText
 10
93.25743100000002
 20
-90.41100400000001
 30
0.0
 40
4.0
  1
三化工業株式会社
100
AcDbText
  0
LINE
  5
D0
330
43
100
AcDbEntity
  8
255
 62
     3
100
AcDbLine
 10
80.49600500000002
 20
-89.94373900000002
 30
0.0
 11
81.00342299999999
 21
-89.436321
 31
0.0
  0
LINE
  5
D1
330
43
100
AcDbEntity
  8
255
 62
     3
100
AcDbLine
 10
80.204012
 20
-90.009457
 30
0.0
 11
81.069141
 21
-89.144328
 31
0.0
  0
LINE
  5
D2
330
43
100
AcDbEntity
  8
255
 62
     3
100
AcDbLine
 10
79.976191
 20
-90.011004
 30
0.0
 11
81.056596
 21
-88.930599
 31
0.0
  0
LINE
  5
D3
330
43
100
AcDbEntity
  8
255
 62
     3
100
AcDbLine
 10
79.74991700000003
 20
-90.011004
 30
0.0
 11
81.006792
 21
-88.75412800000002
 31
0.0
  0
LINE
  5
D4
330
43
100
AcDbEntity
  8
255
 62
     3
100
AcDbLine
 10
79.52364300000002
 20
-90.011004
 30
0.0
 11
80.930998
 21
-88.60364799999997
 31
0.0
  0
LINE
  5
D5
330
43
100
AcDbEntity
  8
255
 62
     3
100
AcDbLine
 10
79.297368
 20
-90.011004
 30
0.0
 11
80.833712
 21
-88.474661
 31
0.0
  0
LINE
  5
D6
330
43
100
AcDbEntity
  8
255
 62
     3
100
AcDbLine
 10
79.07109399999999
 20
-90.011004
 30
0.0
 11
79.55109399999997
 21
-89.53100400000002
 31
0.0
  0
LINE
  5
D7
330
43
100
AcDbEntity
  8
255
 62
     3
100
AcDbLine
 10
80.02904800000001
 20
-89.05305
 30
0.0
 11
80.71651700000002
 21
-88.36558199999997
 31
0.0
  0
LINE
  5
D8
330
43
100
AcDbEntity
  8
255
 62
     3
100
AcDbLine
 10
78.84482
 20
-90.011004
 30
0.0
 11
79.32481999999997
 21
-89.53100400000002
 31
0.0
  0
LINE
  5
D9
330
43
100
AcDbEntity
  8
255
 62
     3
100
AcDbLine
 10
79.97645
 20
-88.879374
 30
0.0
 11
80.57902400000001
 21
-88.27679999999999
 31
0.0
  0
LINE
  5
DA
330
43
100
AcDbEntity
  8
255
 62
     3
100
AcDbLine
 10
78.618546
 20
-90.011004
 30
0.0
 11
79.098546
 21
-89.53100400000002
 31
0.0
  0
LINE
  5
DB
330
43
100
AcDbEntity
  8
255
 62
     3
100
AcDbLine
 10
79.87465
 20
-88.7549
 30
0.0
 11
80.41865599999999
 21
-88.21089399999998
 31
0.0
  0
LINE
  5
DC
330
43
100
AcDbEntity
  8
255
 62
     3
100
AcDbLine
 10
78.39227199999998
 20
-90.011004
 30
0.0
 11
78.87227199999998
 21
-89.53100400000002
 31
0.0
  0
LINE
  5
DD
330
43
100
AcDbEntity
  8
255
 62
     3
100
AcDbLine
 10
79.729726
 20
-88.673549
 30
0.0
 11
80.228938
 21
-88.17433800000001
 31
0.0
  0
LINE
  5
DE
330
43
100
AcDbEntity
  8
255
 62
     3
100
AcDbLine
 10
78.165998
 20
-90.011004
 30
0.0
 11
78.64599799999997
 21
-89.53100400000002
 31
0.0
  0
LINE
  5
DF
330
43
100
AcDbEntity
  8
255
 62
     3
100
AcDbLine
 10
79.525998
 20
-88.65100400000001
 30
0.0
 11
80.00599799999998
 21
-88.17100400000002
 31
0.0
  0
LINE
  5
E0
330
43
100
AcDbEntity
  8
255
 62
     3
100
AcDbLine
 10
80.885998
 20
-87.291004
 30
0.0
 11
81.070688
 21
-87.106314
 31
0.0
  0
LINE
  5
E1
330
43
100
AcDbEntity
  8
255
 62
     3
100
AcDbLine
 10
77.939723
 20
-90.011004
 30
0.0
 11
78.41972300000001
 21
-89.53100400000002
 31
0.0
  0
LINE
  5
E2
330
43
100
AcDbEntity
  8
255
 62
     3
100
AcDbLine
 10
79.299723
 20
-88.65100400000001
 30
0.0
 11
79.77972300000002
 21
-88.17100400000002
 31
0.0
  0
LINE
  5
E3
330
43
100
AcDbEntity
  8
255
 62
     3
100
AcDbLine
 10
80.659723
 20
-87.291004
 30
0.0
 11
81.070688
 21
-86.880039
 31
0.0
  0
LINE
  5
E4
330
43
100
AcDbEntity
  8
255
 62
     3
100
AcDbLine
 10
77.71344899999999
 20
-90.011004
 30
0.0
 11
78.193449
 21
-89.53100400000002
 31
0.0
  0
LINE
  5
E5
330
43
100
AcDbEntity
  8
255
 62
     3
100
AcDbLine
 10
79.073449
 20
-88.65100400000001
 30
0.0
 11
79.553449
 21
-88.17100400000002
 31
0.0
  0
LINE
  5
E6
330
43
100
AcDbEntity
  8
255
 62
     3
100
AcDbLine
 10
80.43344899999999
 20
-87.291004
 30
0.0
 11
80.91344900000001
 21
-86.811004
 31
0.0
  0
LINE
  5
E7
330
43
100
AcDbEntity
  8
255
 62
     3
100
AcDbLine
 10
77.48717499999997
 20
-90.011004
 30
0.0
 11
77.96717499999998
 21
-89.53100400000002
 31
0.0
  0
LINE
  5
E8
330
43
100
AcDbEntity
  8
255
 62
     3
100
AcDbLine
 10
78.84717499999998
 20
-88.65100400000001
 30
0.0
 11
79.32717499999998
 21
-88.17100400000002
 31
0.0
  0
LINE
  5
E9
330
43
100
AcDbEntity
  8
255
 62
     3
100
AcDbLine
 10
80.20717500000001
 20
-87.291004
 30
0.0
 11
80.68717499999998
 21
-86.811004
 31
0.0
  0
LINE
  5
EA
330
43
100
AcDbEntity
  8
255
 62
     3
100
AcDbLine
 10
77.260901
 20
-90.011004
 30
0.0
 11
77.74090100000002
 21
-89.53100400000002
 31
0.0
  0
LINE
  5
EB
330
43
100
AcDbEntity
  8
255
 62
     3
100
AcDbLine
 10
78.620901
 20
-88.65100400000001
 30
0.0
 11
79.10090100000002
 21
-88.17100400000002
 31
0.0
  0
LINE
  5
EC
330
43
100
AcDbEntity
  8
255
 62
     3
100
AcDbLine
 10
79.980901
 20
-87.291004
 30
0.0
 11
80.460901
 21
-86.811004
 31
0.0
  0
LINE
  5
ED
330
43
100
AcDbEntity
  8
255
 62
     3
100
AcDbLine
 10
77.070688
 20
-89.97494300000004
 30
0.0
 11
77.51462700000002
 21
-89.53100400000002
 31
0.0
  0
LINE
  5
EE
330
43
100
AcDbEntity
  8
255
 62
     3
100
AcDbLine
 10
78.394627
 20
-88.65100400000001
 30
0.0
 11
78.874627
 21
-88.17100400000002
 31
0.0
  0
LINE
  5
EF
330
43
100
AcDbEntity
  8
255
 62
     3
100
AcDbLine
 10
79.754627
 20
-87.291004
 30
0.0
 11
80.23462700000001
 21
-86.811004
 31
0.0
  0
LINE
  5
F0
330
43
100
AcDbEntity
  8
255
 62
     3
100
AcDbLine
 10
77.070688
 20
-89.748669
 30
0.0
 11
77.288353
 21
-89.53100400000002
 31
0.0
  0
LINE
  5
F1
330
43
100
AcDbEntity
  8
255
 62
     3
100
AcDbLine
 10
78.168353
 20
-88.65100400000001
 30
0.0
 11
78.648353
 21
-88.17100400000002
 31
0.0
  0
LINE
  5
F2
330
43
100
AcDbEntity
  8
255
 62
     3
100
AcDbLine
 10
79.52835300000002
 20
-87.291004
 30
0.0
 11
80.008353
 21
-86.811004
 31
0.0
  0
LINE
  5
F3
330
43
100
AcDbEntity
  8
255
 62
     3
100
AcDbLine
 10
77.94329999999998
 20
-88.649783
 30
0.0
 11
78.437015
 21
-88.15606700000001
 31
0.0
  0
LINE
  5
F4
330
43
100
AcDbEntity
  8
255
 62
     3
100
AcDbLine
 10
79.30207800000002
 20
-87.291004
 30
0.0
 11
79.78207799999998
 21
-86.811004
 31
0.0
  0
LINE
  5
F5
330
43
100
AcDbEntity
  8
255
 62
     3
100
AcDbLine
 10
77.74830699999998
 20
-88.61850099999998
 30
0.0
 11
78.28504399999999
 21
-88.081765
 31
0.0
  0
LINE
  5
F6
330
43
100
AcDbEntity
  8
255
 62
     3
100
AcDbLine
 10
79.075804
 20
-87.291004
 30
0.0
 11
79.55580400000002
 21
-86.811004
 31
0.0
  0
LINE
  5
F7
330
43
100
AcDbEntity
  8
255
 62
     3
100
AcDbLine
 10
77.58420100000002
 20
-88.55633299999999
 30
0.0
 11
78.177093
 21
-87.963441
 31
0.0
  0
LINE
  5
F8
330
43
100
AcDbEntity
  8
255
 62
     3
100
AcDbLine
 10
78.84953
 20
-87.291004
 30
0.0
 11
79.32953000000002
 21
-86.811004
 31
0.0
  0
LINE
  5
F9
330
43
100
AcDbEntity
  8
255
 62
     3
100
AcDbLine
 10
77.44359799999998
 20
-88.47066099999997
 30
0.0
 11
78.115877
 21
-87.79838199999998
 31
0.0
  0
LINE
  5
FA
330
43
100
AcDbEntity
  8
255
 62
     3
100
AcDbLine
 10
78.62325600000001
 20
-87.291004
 30
0.0
 11
79.103256
 21
-86.811004
 31
0.0
  0
LINE
  5
FB
330
43
100
AcDbEntity
  8
255
 62
     3
100
AcDbLine
 10
77.323515
 20
-88.36447099999999
 30
0.0
 11
78.160678
 21
-87.527308
 31
0.0
  0
LINE
  5
FC
330
43
100
AcDbEntity
  8
255
 62
     3
100
AcDbLine
 10
78.346992
 20
-87.34099399999998
 30
0.0
 11
78.87698199999999
 21
-86.811004
 31
0.0
  0
LINE
  5
FD
330
43
100
AcDbEntity
  8
255
 62
     3
100
AcDbLine
 10
77.223279
 20
-88.23843199999997
 30
0.0
 11
78.65070799999998
 21
-86.811004
 31
0.0
  0
LINE
  5
FE
330
43
100
AcDbEntity
  8
255
 62
     3
100
AcDbLine
 10
77.144163
 20
-88.091275
 30
0.0
 11
78.42443299999998
 21
-86.811004
 31
0.0
  0
LINE
  5
FF
330
43
100
AcDbEntity
  8
255
 62
     3
100
AcDbLine
 10
77.09011099999997
 20
-87.919052
 30
0.0
 11
78.19815899999998
 21
-86.811004
 31
0.0
  0
LINE
  5
100
330
43
100
AcDbEntity
  8
255
 62
     3
100
AcDbLine
 10
77.07088399999998
 20
-87.712005
 30
0.0
 11
77.97168899999999
 21
-86.81119999999998
 31
0.0
  0
LINE
  5
101
330
43
100
AcDbEntity
  8
255
 62
     3
100
AcDbLine
 10
77.118583
 20
-87.438032
 30
0.0
 11
77.697716
 21
-86.85889899999997
 31
0.0
  0
LINE
  5
102
330
43
100
AcDbEntity
  8
255
 62
     3
100
AcDbLine
 10
85.859319
 20
-90.011004
 30
0.0
 11
85.870688
 21
-89.99963499999998
 31
0.0
  0
LINE
  5
103
330
43
100
AcDbEntity
  8
255
 62
     3
100
AcDbLine
 10
85.63304499999999
 20
-90.011004
 30
0.0
 11
85.870688
 21
-89.773361
 31
0.0
  0
LINE
  5
104
330
43
100
AcDbEntity
  8
255
 62
     3
100
AcDbLine
 10
85.40677099999998
 20
-90.011004
 30
0.0
 11
85.870688
 21
-89.54708700000002
 31
0.0
  0
LINE
  5
105
330
43
100
AcDbEntity
  8
255
 62
     3
100
AcDbLine
 10
85.180497
 20
-90.011004
 30
0.0
 11
85.870688
 21
-89.320813
 31
0.0
  0
LINE
  5
106
330
43
100
AcDbEntity
  8
255
 62
     3
100
AcDbLine
 10
84.95422299999999
 20
-90.011004
 30
0.0
 11
85.870688
 21
-89.094539
 31
0.0
  0
LINE
  5
107
330
43
100
AcDbEntity
  8
255
 62
     3
100
AcDbLine
 10
84.83068799999998
 20
-89.908265
 30
0.0
 11
85.870688
 21
-88.86826500000003
 31
0.0
  0
LINE
  5
108
330
43
100
AcDbEntity
  8
255
 62
     3
100
AcDbLine
 10
84.83068799999998
 20
-89.68199
 30
0.0
 11
85.870688
 21
-88.64199000000002
 31
0.0
  0
LINE
  5
109
330
43
100
AcDbEntity
  8
255
 62
     3
100
AcDbLine
 10
84.83068799999998
 20
-89.455716
 30
0.0
 11
85.870688
 21
-88.41571599999998
 31
0.0
  0
LINE
  5
10A
330
43
100
AcDbEntity
  8
255
 62
     3
100
AcDbLine
 10
84.83068799999998
 20
-89.22944200000001
 30
0.0
 11
85.870688
 21
-88.189442
 31
0.0
  0
LINE
  5
10B
330
43
100
AcDbEntity
  8
255
 62
     3
100
AcDbLine
 10
84.83068799999998
 20
-89.003168
 30
0.0
 11
85.870688
 21
-87.96316800000004
 31
0.0
  0
LINE
  5
10C
330
43
100
AcDbEntity
  8
255
 62
     3
100
AcDbLine
 10
84.83068799999998
 20
-88.77689399999999
 30
0.0
 11
85.870688
 21
-87.736894
 31
0.0
  0
LINE
  5
10D
330
43
100
AcDbEntity
  8
255
 62
     3
100
AcDbLine
 10
84.83068799999998
 20
-88.55062
 30
0.0
 11
85.84898
 21
-87.53232800000002
 31
0.0
  0
LINE
  5
10E
330
43
100
AcDbEntity
  8
255
 62
     3
100
AcDbLine
 10
84.83068799999998
 20
-88.32434499999996
 30
0.0
 11
85.793318
 21
-87.36171500000002
 31
0.0
  0
LINE
  5
10F
330
43
100
AcDbEntity
  8
255
 62
     3
100
AcDbLine
 10
84.83068799999998
 20
-88.09807099999998
 30
0.0
 11
85.71292300000001
 21
-87.215836
 31
0.0
  0
LINE
  5
110
330
43
100
AcDbEntity
  8
255
 62
     3
100
AcDbLine
 10
84.83068799999998
 20
-87.87179700000001
 30
0.0
 11
85.61154
 21
-87.09094499999997
 31
0.0
  0
LINE
  5
111
330
43
100
AcDbEntity
  8
255
 62
     3
100
AcDbLine
 10
84.82364100000003
 20
-87.65257
 30
0.0
 11
85.49032099999998
 21
-86.985889
 31
0.0
  0
LINE
  5
112
330
43
100
AcDbEntity
  8
255
 62
     3
100
AcDbLine
 10
84.759258
 20
-87.490679
 30
0.0
 11
85.348485
 21
-86.90145200000001
 31
0.0
  0
LINE
  5
113
330
43
100
AcDbEntity
  8
255
 62
     3
100
AcDbLine
 10
84.648915
 20
-87.37474699999998
 30
0.0
 11
85.182877
 21
-86.84078599999997
 31
0.0
  0
LINE
  5
114
330
43
100
AcDbEntity
  8
255
 62
     3
100
AcDbLine
 10
84.494067
 20
-87.303321
 30
0.0
 11
84.98571700000002
 21
-86.81167099999996
 31
0.0
  0
LINE
  5
115
330
43
100
AcDbEntity
  8
255
 62
     3
100
AcDbLine
 10
84.28010999999996
 20
-87.291004
 30
0.0
 11
84.76010999999997
 21
-86.811004
 31
0.0
  0
LINE
  5
116
330
43
100
AcDbEntity
  8
255
 62
     3
100
AcDbLine
 10
84.053836
 20
-87.291004
 30
0.0
 11
84.533836
 21
-86.811004
 31
0.0
  0
LINE
  5
117
330
43
100
AcDbEntity
  8
255
 62
     3
100
AcDbLine
 10
83.82756200000001
 20
-87.291004
 30
0.0
 11
84.30756200000002
 21
-86.811004
 31
0.0
  0
LINE
  5
118
330
43
100
AcDbEntity
  8
255
 62
     3
100
AcDbLine
 10
83.601288
 20
-87.291004
 30
0.0
 11
84.081288
 21
-86.811004
 31
0.0
  0
LINE
  5
119
330
43
100
AcDbEntity
  8
255
 62
     3
100
AcDbLine
 10
83.37501299999997
 20
-87.291004
 30
0.0
 11
83.85501299999999
 21
-86.811004
 31
0.0
  0
LINE
  5
11A
330
43
100
AcDbEntity
  8
255
 62
     3
100
AcDbLine
 10
83.27068800000002
 20
-87.16905500000001
 30
0.0
 11
83.628739
 21
-86.811004
 31
0.0
  0
LINE
  5
11B
330
43
100
AcDbEntity
  8
255
 62
     3
100
AcDbLine
 10
83.27068800000002
 20
-86.94278100000003
 30
0.0
 11
83.40246500000002
 21
-86.811004
 31
0.0
  0
LINE
  5
11C
330
43
100
AcDbEntity
  8
255
 62
     3
100
AcDbLine
 10
90.611077
 20
-90.011004
 30
0.0
 11
90.67068799999999
 21
-89.95139300000003
 31
0.0
  0
LINE
  5
11D
330
43
100
AcDbEntity
  8
255
 62
     3
100
AcDbLine
 10
90.38480300000001
 20
-90.011004
 30
0.0
 11
90.67068799999999
 21
-89.72511899999998
 31
0.0
  0
LINE
  5
11E
330
43
100
AcDbEntity
  8
255
 62
     3
100
AcDbLine
 10
90.158529
 20
-90.011004
 30
0.0
 11
90.66587699999999
 21
-89.50365600000003
 31
0.0
  0
LINE
  5
11F
330
43
100
AcDbEntity
  8
255
 62
     3
100
AcDbLine
 10
89.932254
 20
-90.011004
 30
0.0
 11
90.632516
 21
-89.310743
 31
0.0
  0
LINE
  5
120
330
43
100
AcDbEntity
  8
255
 62
     3
100
AcDbLine
 10
89.70598
 20
-90.011004
 30
0.0
 11
90.575164
 21
-89.14182099999996
 31
0.0
  0
LINE
  5
121
330
43
100
AcDbEntity
  8
255
 62
     3
100
AcDbLine
 10
89.630688
 20
-89.86002199999999
 30
0.0
 11
90.498711
 21
-88.99199899999997
 31
0.0
  0
LINE
  5
122
330
43
100
AcDbEntity
  8
255
 62
     3
100
AcDbLine
 10
89.630688
 20
-89.633748
 30
0.0
 11
90.405654
 21
-88.85878199999998
 31
0.0
  0
LINE
  5
123
330
43
100
AcDbEntity
  8
255
 62
     3
100
AcDbLine
 10
89.630688
 20
-89.40747399999997
 30
0.0
 11
90.297172
 21
-88.74098999999999
 31
0.0
  0
LINE
  5
124
330
43
100
AcDbEntity
  8
255
 62
     3
100
AcDbLine
 10
89.61760400000001
 20
-89.19428399999999
 30
0.0
 11
90.17352200000001
 21
-88.638366
 31
0.0
  0
LINE
  5
125
330
43
100
AcDbEntity
  8
255
 62
     3
100
AcDbLine
 10
89.57522199999997
 20
-89.010391
 30
0.0
 11
90.034114
 21
-88.55149899999998
 31
0.0
  0
LINE
  5
126
330
43
100
AcDbEntity
  8
255
 62
     3
100
AcDbLine
 10
89.510921
 20
-88.84841800000002
 30
0.0
 11
89.87733399999996
 21
-88.482005
 31
0.0
  0
LINE
  5
127
330
43
100
AcDbEntity
  8
255
 62
     3
100
AcDbLine
 10
90.181547
 20
-88.17779200000002
 30
0.0
 11
90.43747600000001
 21
-87.921863
 31
0.0
  0
LINE
  5
128
330
43
100
AcDbEntity
  8
255
 62
     3
100
AcDbLine
 10
89.428569
 20
-88.70449599999998
 30
0.0
 11
89.699956
 21
-88.433109
 31
0.0
  0
LINE
  5
129
330
43
100
AcDbEntity
  8
255
 62
     3
100
AcDbLine
 10
89.75662599999997
 20
-88.37643900000001
 30
0.0
 11
90.636123
 21
-87.496942
 31
0.0
  0
LINE
  5
12A
330
43
100
AcDbEntity
  8
255
 62
     3
100
AcDbLine
 10
89.255787
 20
-88.65100400000001
 30
0.0
 11
89.49552999999998
 21
-88.411261
 31
0.0
  0
LINE
  5
12B
330
43
100
AcDbEntity
  8
255
 62
     3
100
AcDbLine
 10
89.496055
 20
-88.41073599999999
 30
0.0
 11
90.67041999999998
 21
-87.23637099999995
 31
0.0
  0
LINE
  5
12C
330
43
100
AcDbEntity
  8
255
 62
     3
100
AcDbLine
 10
87.669513
 20
-90.011004
 30
0.0
 11
87.710688
 21
-89.969829
 31
0.0
  0
LINE
  5
12D
330
43
100
AcDbEntity
  8
255
 62
     3
100
AcDbLine
 10
89.02951299999998
 20
-88.65100400000001
 30
0.0
 11
90.67068799999999
 21
-87.00982900000004
 31
0.0
  0
LINE
  5
12E
330
43
100
AcDbEntity
  8
255
 62
     3
100
AcDbLine
 10
87.44323900000003
 20
-90.011004
 30
0.0
 11
87.710688
 21
-89.74355499999999
 31
0.0
  0
LINE
  5
12F
330
43
100
AcDbEntity
  8
255
 62
     3
100
AcDbLine
 10
88.803239
 20
-88.65100400000001
 30
0.0
 11
89.283239
 21
-88.17100400000002
 31
0.0
  0
LINE
  5
130
330
43
100
AcDbEntity
  8
255
 62
     3
100
AcDbLine
 10
89.535979
 20
-87.918263
 30
0.0
 11
90.64323899999999
 21
-86.811004
 31
0.0
  0
LINE
  5
131
330
43
100
AcDbEntity
  8
255
 62
     3
100
AcDbLine
 10
87.216964
 20
-90.011004
 30
0.0
 11
87.710688
 21
-89.51728000000001
 31
0.0
  0
LINE
  5
132
330
43
100
AcDbEntity
  8
255
 62
     3
100
AcDbLine
 10
88.576964
 20
-88.65100400000001
 30
0.0
 11
89.05696400000001
 21
-88.17100400000002
 31
0.0
  0
LINE
  5
133
330
43
100
AcDbEntity
  8
255
 62
     3
100
AcDbLine
 10
89.620435
 20
-87.60753299999995
 30
0.0
 11
90.41696399999999
 21
-86.811004
 31
0.0
  0
LINE
  5
134
330
43
100
AcDbEntity
  8
255
 62
     3
100
AcDbLine
 10
86.99068999999999
 20
-90.011004
 30
0.0
 11
87.710688
 21
-89.29100600000003
 31
0.0
  0
LINE
  5
135
330
43
100
AcDbEntity
  8
255
 62
     3
100
AcDbLine
 10
88.35069
 20
-88.65100400000001
 30
0.0
 11
88.83069
 21
-88.17100400000002
 31
0.0
  0
LINE
  5
136
330
43
100
AcDbEntity
  8
255
 62
     3
100
AcDbLine
 10
89.630688
 20
-87.37100600000003
 30
0.0
 11
90.19069
 21
-86.811004
 31
0.0
  0
LINE
  5
137
330
43
100
AcDbEntity
  8
255
 62
     3
100
AcDbLine
 10
86.764416
 20
-90.011004
 30
0.0
 11
87.710688
 21
-89.06473199999998
 31
0.0
  0
LINE
  5
138
330
43
100
AcDbEntity
  8
255
 62
     3
100
AcDbLine
 10
88.12441599999997
 20
-88.65100400000001
 30
0.0
 11
88.60441599999999
 21
-88.17100400000002
 31
0.0
  0
LINE
  5
139
330
43
100
AcDbEntity
  8
255
 62
     3
100
AcDbLine
 10
89.630688
 20
-87.14473199999998
 30
0.0
 11
89.964416
 21
-86.811004
 31
0.0
  0
LINE
  5
13A
330
43
100
AcDbEntity
  8
255
 62
     3
100
AcDbLine
 10
86.670688
 20
-89.878458
 30
0.0
 11
87.710688
 21
-88.83845800000001
 31
0.0
  0
LINE
  5
13B
330
43
100
AcDbEntity
  8
255
 62
     3
100
AcDbLine
 10
87.898142
 20
-88.65100400000001
 30
0.0
 11
88.37814200000002
 21
-88.17100400000002
 31
0.0
  0
LINE
  5
13C
330
43
100
AcDbEntity
  8
255
 62
     3
100
AcDbLine
 10
89.630688
 20
-86.91845800000001
 30
0.0
 11
89.73814200000004
 21
-86.811004
 31
0.0
  0
LINE
  5
13D
330
43
100
AcDbEntity
  8
255
 62
     3
100
AcDbLine
 10
86.670688
 20
-89.65218399999995
 30
0.0
 11
88.15186800000002
 21
-88.17100400000002
 31
0.0
  0
LINE
  5
13E
330
43
100
AcDbEntity
  8
255
 62
     3
100
AcDbLine
 10
86.670688
 20
-89.42591
 30
0.0
 11
87.925593
 21
-88.17100400000002
 31
0.0
  0
LINE
  5
13F
330
43
100
AcDbEntity
  8
255
 62
     3
100
AcDbLine
 10
86.670688
 20
-89.19963499999999
 30
0.0
 11
87.710688
 21
-88.159635
 31
0.0
  0
LINE
  5
140
330
43
100
AcDbEntity
  8
255
 62
     3
100
AcDbLine
 10
86.670688
 20
-88.973361
 30
0.0
 11
87.710688
 21
-87.93336100000002
 31
0.0
  0
LINE
  5
141
330
43
100
AcDbEntity
  8
255
 62
     3
100
AcDbLine
 10
86.670688
 20
-88.74708699999997
 30
0.0
 11
87.710688
 21
-87.707087
 31
0.0
  0
LINE
  5
142
330
43
100
AcDbEntity
  8
255
 62
     3
100
AcDbLine
 10
86.670688
 20
-88.520813
 30
0.0
 11
87.710688
 21
-87.480813
 31
0.0
  0
LINE
  5
143
330
43
100
AcDbEntity
  8
255
 62
     3
100
AcDbLine
 10
86.670688
 20
-88.294539
 30
0.0
 11
87.710688
 21
-87.25453900000003
 31
0.0
  0
LINE
  5
144
330
43
100
AcDbEntity
  8
255
 62
     3
100
AcDbLine
 10
86.670688
 20
-88.06826499999997
 30
0.0
 11
87.710688
 21
-87.028265
 31
0.0
  0
LINE
  5
145
330
43
100
AcDbEntity
  8
255
 62
     3
100
AcDbLine
 10
86.670688
 20
-87.84198999999999
 30
0.0
 11
87.701674
 21
-86.811004
 31
0.0
  0
LINE
  5
146
330
43
100
AcDbEntity
  8
255
 62
     3
100
AcDbLine
 10
86.670688
 20
-87.61571600000001
 30
0.0
 11
87.47539999999998
 21
-86.811004
 31
0.0
  0
LINE
  5
147
330
43
100
AcDbEntity
  8
255
 62
     3
100
AcDbLine
 10
86.670688
 20
-87.389442
 30
0.0
 11
87.24912600000001
 21
-86.811004
 31
0.0
  0
LINE
  5
148
330
43
100
AcDbEntity
  8
255
 62
     3
100
AcDbLine
 10
86.670688
 20
-87.16316799999999
 30
0.0
 11
87.022852
 21
-86.811004
 31
0.0
  0
LINE
  5
149
330
43
100
AcDbEntity
  8
255
 62
     3
100
AcDbLine
 10
86.670688
 20
-86.936894
 30
0.0
 11
86.79657799999999
 21
-86.811004
 31
0.0
  0
LINE
  5
14A
330
43
100
AcDbEntity
  8
255
  6
CENTER
 62
     3
100
AcDbLine
 10
-11.021591
 20
-66.0
 30
0.0
 11
-27.54652399999999
 21
-66.0
 31
0.0
  0
LINE
  5
14B
330
43
100
AcDbEntity
  8
255
  6
CENTER
 62
     3
100
AcDbLine
 10
-23.92167699999999
 20
-61.473799
 30
0.0
 11
-23.92167699999999
 21
-70.516901
 31
0.0
  0
LINE
  5
14C
330
43
100
AcDbEntity
  8
255
 62
     3
100
AcDbLine
 10
-19.65582999999998
 20
-64.0
 30
0.0
 11
-19.65582999999998
 21
-68.0
 31
0.0
  0
LINE
  5
14D
330
43
100
AcDbEntity
  8
255
 62
     3
100
AcDbLine
 10
-12.19612899999999
 20
-63.0
 30
0.0
 11
-12.19612899999999
 21
-69.0
 31
0.0
  0
CIRCLE
  5
14E
330
43
100
AcDbEntity
  8
255
 62
     3
100
AcDbCircle
 10
-23.92167699999999
 20
-66.0
 30
0.0
 40
2.0
  0
CIRCLE
  5
14F
330
43
100
AcDbEntity
  8
255
 62
     3
100
AcDbCircle
 10
-23.92167699999999
 20
-66.0
 30
0.0
 40
3.0
  0
LINE
  5
150
330
43
100
AcDbEntity
  8
255
 62
     3
100
AcDbLine
 10
-12.19612899999999
 20
-63.0
 30
0.0
 11
-19.65582999999998
 21
-64.0
 31
0.0
  0
LINE
  5
151
330
43
100
AcDbEntity
  8
255
 62
     3
100
AcDbLine
 10
-19.65582999999998
 20
-68.0
 30
0.0
 11
-12.19612899999999
 21
-69.0
 31
0.0
  0
LINE
  5
152
330
43
100
AcDbEntity
  8
255
 62
     3
100
AcDbLine
 10
-131.0
 20
-54.5
 30
0.0
 11
-136.0
 21
-61.5
 31
0.0
  0
LINE
  5
153
330
43
100
AcDbEntity
  8
255
 62
     3
100
AcDbLine
 10
-131.0
 20
-54.5
 30
0.0
 11
-126.0
 21
-61.5
 31
0.0
  0
LINE
  5
154
330
43
100
AcDbEntity
  8
255
 62
     3
100
AcDbLine
 10
-131.0
 20
-61.5
 30
0.0
 11
-136.0
 21
-68.5
 31
0.0
  0
LINE
  5
155
330
43
100
AcDbEntity
  8
255
 62
     3
100
AcDbLine
 10
-131.0
 20
-61.5
 30
0.0
 11
-126.0
 21
-68.5
 31
0.0
  0
LINE
  5
156
330
43
100
AcDbEntity
  8
255
 62
     3
100
AcDbLine
 10
-136.0
 20
-75.5
 30
0.0
 11
-131.0
 21
-68.5
 31
0.0
  0
LINE
  5
157
330
43
100
AcDbEntity
  8
255
 62
     3
100
AcDbLine
 10
-131.0
 20
-68.5
 30
0.0
 11
-126.0
 21
-75.5
 31
0.0
  0
LINE
  5
158
330
43
100
AcDbEntity
  8
255
 62
     3
100
AcDbLine
 10
-136.0
 20
-54.5
 30
0.0
 11
-136.0
 21
-92.5
 31
0.0
  0
TEXT
  5
159
330
43
100
AcDbEntity
  8
255
 62
     3
100
AcDbText
 10
-23.90284199999999
 20
-90.23537299999999
 30
0.0
 40
6.0
  1
mm
 41
0.833333
100
AcDbText
  0
LINE
  5
15A
330
43
100
AcDbEntity
  8
255
 62
     3
100
AcDbLine
 10
-10.0
 20
-60.5
 30
0.0
 11
-10.0
 21
-92.5
 31
0.0
  0
LINE
  5
15B
330
43
100
AcDbEntity
  8
255
 62
     3
100
AcDbLine
 10
27.0
 20
-60.5
 30
0.0
 11
27.0
 21
-71.5
 31
0.0
  0
LINE
  5
15C
330
43
100
AcDbEntity
  8
255
 62
     3
100
AcDbLine
 10
33.0
 20
-60.5
 30
0.0
 11
33.0
 21
-71.5
 31
0.0
  0
TEXT
  5
15D
330
43
100
AcDbEntity
  8
255
 62
     3
100
AcDbText
 10
30.0
 20
-62.0
 30
0.0
 40
4.0
  1
仕上
 50
0.0000010000000028
 41
0.833333
 51
1.570796
  7
TATEGAKI
100
AcDbText
  0
LINE
  5
15E
330
43
100
AcDbEntity
  8
255
 62
     3
100
AcDbLine
 10
136.0
 20
92.5
 30
0.0
 11
136.0
 21
-92.5
 31
0.0
  0
LINE
  5
15F
330
43
100
AcDbEntity
  8
255
 62
     3
100
AcDbLine
 10
-136.0
 20
-92.5
 30
0.0
 11
-136.0
 21
92.5
 31
0.0
  0
LINE
  5
160
330
43
100
AcDbEntity
  8
255
 62
     3
100
AcDbLine
 10
136.0
 20
-92.5
 30
0.0
 11
-136.0
 21
-92.5
 31
0.0
  0
LINE
  5
161
330
43
100
AcDbEntity
  8
255
 62
     3
100
AcDbLine
 10
-136.0
 20
-92.5
 30
0.0
 11
136.0
 21
-92.5
 31
0.0
  0
LINE
  5
162
330
43
100
AcDbEntity
  8
255
 62
     3
100
AcDbLine
 10
136.0
 20
-92.5
 30
0.0
 11
136.0
 21
-54.5
 31
0.0
  0
LINE
  5
163
330
43
100
AcDbEntity
  8
255
 62
     3
100
AcDbLine
 10
-136.0
 20
-54.5
 30
0.0
 11
-136.0
 21
-92.5
 31
0.0
  0
ENDBLK
  5
164
330
43
100
AcDbEntity
  8
001
100
AcDbBlockEnd
  0
BLOCK
  5
166
330
165
100
AcDbEntity
  8
0
100
AcDbBlockBegin
  2
ARROW
 70
     0
 10
0.0
 20
0.0
 30
0.0
  3
ARROW
  1

  0
LWPOLYLINE
  5
167
330
165
100
AcDbEntity
  8
0
  6
Continuous
 62
     0
100
AcDbPolyline
 90
        3
 70
     0
 43
0.0
 10
2.0
 20
0.535898
 10
0.0
 20
0.0
 10
2.0
 20
-0.535898
  0
ENDBLK
  5
16C
330
165
100
AcDbEntity
  8
0
100
AcDbBlockEnd
  0
ENDSEC
  0
SECTION
  2
ENTITIES
  0
LINE
  5
1FB
330
1E
100
AcDbEntity
  8
001
 62
     0
100
AcDbLine
 10
-49.02525
 20
-10.978958
 30
0.0
 11
-49.02525
 21
39.021042
 31
0.0
  0
LINE
  5
1FC
330
1E
100
AcDbEntity
  8
001
 62
     0
100
AcDbLine
 10
32.97475
 20
39.021042
 30
0.0
 11
32.97475
 21
-10.978958
 31
0.0
  0
ARC
  5
1FD
330
1E
100
AcDbEntity
  8
001
 62
     0
100
AcDbCircle
 10
-44.02524999999999
 20
39.021042
 30
0.0
 40
5.0
100
AcDbArc
 50
90.0
 51
180.0
  0
ARC
  5
1FE
330
1E
100
AcDbEntity
  8
001
 62
     0
100
AcDbCircle
 10
-44.02524999999999
 20
-10.978958
 30
0.0
 40
5.0
100
AcDbArc
 50
180.0
 51
270.0
  0
ARC
  5
1FF
330
1E
100
AcDbEntity
  8
001
 62
     0
100
AcDbCircle
 10
27.97475
 20
-10.978958
 30
0.0
 40
5.0
100
AcDbArc
 50
270.0
 51
0.0
  0
ARC
  5
200
330
1E
100
AcDbEntity
  8
001
 62
     0
100
AcDbCircle
 10
27.97475
 20
39.021042
 30
0.0
 40
5.0
100
AcDbArc
 50
0.0
 51
90.0
  0
LINE
  5
201
330
1E
100
AcDbEntity
  8
001
 62
     0
100
AcDbLine
 10
-78.02525
 20
49.021042
 30
0.0
 11
-78.02525
 21
-20.97895799999998
 31
0.0
  0
ARC
  5
202
330
1E
100
AcDbEntity
  8
001
 62
     0
100
AcDbCircle
 10
56.97475
 20
-20.97895799999998
 30
0.0
 40
5.0
100
AcDbArc
 50
270.0
 51
0.0
  0
ARC
  5
203
330
1E
100
AcDbEntity
  8
001
 62
     0
100
AcDbCircle
 10
-73.02525
 20
-20.97895799999998
 30
0.0
 40
5.0
100
AcDbArc
 50
180.0
 51
270.0
  0
ARC
  5
204
330
1E
100
AcDbEntity
  8
001
 62
     0
100
AcDbCircle
 10
-73.02525
 20
49.021042
 30
0.0
 40
5.0
100
AcDbArc
 50
90.0
 51
180.0
  0
ARC
  5
205
330
1E
100
AcDbEntity
  8
001
 62
     0
100
AcDbCircle
 10
56.97475
 20
49.021042
 30
0.0
 40
5.0
100
AcDbArc
 50
0.0
 51
90.0
  0
LINE
  5
206
330
1E
100
AcDbEntity
  8
001
  6
CENTER
 62
     0
100
AcDbLine
 10
39.913794
 20
47.02104199999999
 30
0.0
 11
66.024286
 21
47.02104199999999
 31
0.0
  0
LINE
  5
207
330
1E
100
AcDbEntity
  8
001
  6
CENTER
 62
     0
100
AcDbLine
 10
-54.972312
 20
47.02104199999999
 30
0.0
 11
-81.76077300000001
 21
47.02104199999999
 31
0.0
  0
LINE
  5
208
330
1E
100
AcDbEntity
  8
001
  6
CENTER
 62
     0
100
AcDbLine
 10
41.786413
 20
-18.97895799999998
 30
0.0
 11
66.024286
 21
-18.97895799999998
 31
0.0
  0
LINE
  5
209
330
1E
100
AcDbEntity
  8
001
  6
CENTER
 62
     0
100
AcDbLine
 10
-61.15701600000001
 20
-18.97895799999998
 30
0.0
 11
-81.76077300000001
 21
-18.97895799999998
 31
0.0
  0
TEXT
  5
20A
330
1E
100
AcDbEntity
  8
001
 62
     0
100
AcDbText
 10
141.632429
 20
46.05800799999999
 30
0.0
 40
5.0
  1
D-0080-05
 50
90.00000300000001
 41
1.08
100
AcDbText
  0
TEXT
  5
20B
330
1E
100
AcDbEntity
  8
001
 62
     0
100
AcDbText
 10
86.290288
 20
-79.64027
 30
0.0
 40
5.0
  1
D-0080-05
 41
1.08
100
AcDbText
  0
TEXT
  5
20C
330
1E
100
AcDbEntity
  8
001
 62
     0
100
AcDbText
 10
74.36510300000001
 20
-68.39825000000001
 30
0.0
 40
5.0
  1
ＴＭＫＥメンテパネル小
 41
0.833333
100
AcDbText
  0
LINE
  5
20D
330
1E
100
AcDbEntity
  8
002
 62
     0
100
AcDbLine
 10
-73.02525
 20
-25.97895799999999
 30
0.0
 11
56.97475
 21
-25.97895799999999
 31
0.0
  0
LINE
  5
20E
330
1E
100
AcDbEntity
  8
002
 62
     0
100
AcDbLine
 10
56.97475
 20
54.021042
 30
0.0
 11
-73.02525
 21
54.021042
 31
0.0
  0
LINE
  5
20F
330
1E
100
AcDbEntity
  8
002
  6
CENTER
 62
     0
100
AcDbLine
 10
54.97475
 20
31.80585999999999
 30
0.0
 11
54.97475
 21
49.021042
 31
0.0
  0
LINE
  5
210
330
1E
100
AcDbEntity
  8
002
  6
CENTER
 62
     0
100
AcDbLine
 10
54.97475
 20
-5.747741
 30
0.0
 11
54.97475
 21
-20.97895799999998
 31
0.0
  0
LINE
  5
211
330
1E
100
AcDbEntity
  8
002
  6
CENTER
 62
     0
100
AcDbLine
 10
-71.02524999999999
 20
35.33853
 30
0.0
 11
-71.02524999999999
 21
49.021042
 31
0.0
  0
LINE
  5
212
330
1E
100
AcDbEntity
  8
002
  6
CENTER
 62
     0
100
AcDbLine
 10
-71.02524999999999
 20
-7.397669999999997
 30
0.0
 11
-71.02524999999999
 21
-20.97895799999998
 31
0.0
  0
LINE
  5
218
330
1E
100
AcDbEntity
  8
002
 62
     0
100
AcDbLine
 10
39.292334
 20
27.51425499999999
 30
0.0
 11
68.40796800000001
 21
42.191303
 31
0.0
  0
LINE
  5
219
330
1E
100
AcDbEntity
  8
002
 62
     0
100
AcDbLine
 10
68.40796800000001
 20
42.191303
 30
0.0
 11
90.407968
 21
42.191303
 31
0.0
  0
TEXT
  5
21A
330
1E
100
AcDbEntity
  8
002
 62
     0
100
AcDbText
 10
71.15796800000002
 20
43.191303
 30
0.0
 40
3.2
  1
8-%%c3.3
 41
0.9667969999999998
100
AcDbText
  0
LINE
  5
21B
330
1E
100
AcDbEntity
  8
003
  6
CENTER
 62
     0
100
AcDbLine
 10
-48.921035
 20
26.521042
 30
0.0
 11
-63.612548
 21
26.521042
 31
0.0
  0
LINE
  5
21C
330
1E
100
AcDbEntity
  8
003
  6
CENTER
 62
     0
100
AcDbLine
 10
-54.02525
 20
19.436453
 30
0.0
 11
-54.02525
 21
36.092632
 31
0.0
  0
LINE
  5
21D
330
1E
100
AcDbEntity
  8
003
  6
CENTER
 62
     0
100
AcDbLine
 10
-71.02524999999999
 20
41.294158
 30
0.0
 11
-71.02524999999999
 21
52.021042
 31
0.0
  0
LINE
  5
21E
330
1E
100
AcDbEntity
  8
003
  6
CENTER
 62
     0
100
AcDbLine
 10
-64.367423
 20
47.02104199999999
 30
0.0
 11
-76.02524999999999
 21
47.02104199999999
 31
0.0
  0
LINE
  5
21F
330
1E
100
AcDbEntity
  8
003
  6
CENTER
 62
     0
100
AcDbLine
 10
48.674258
 20
47.02104199999999
 30
0.0
 11
59.97475
 21
47.02104199999999
 31
0.0
  0
LINE
  5
220
330
1E
100
AcDbEntity
  8
003
  6
CENTER
 62
     0
100
AcDbLine
 10
54.97475
 20
41.645796
 30
0.0
 11
54.97475
 21
52.021042
 31
0.0
  0
LINE
  5
221
330
1E
100
AcDbEntity
  8
003
  6
CENTER
 62
     0
100
AcDbLine
 10
37.97475
 20
20.104523
 30
0.0
 11
37.97475
 21
37.33261699999999
 31
0.0
  0
LINE
  5
222
330
1E
100
AcDbEntity
  8
003
  6
CENTER
 62
     0
100
AcDbLine
 10
46.50275999999998
 20
26.521042
 30
0.0
 11
32.53940399999999
 21
26.521042
 31
0.0
  0
LINE
  5
223
330
1E
100
AcDbEntity
  8
003
  6
CENTER
 62
     0
100
AcDbLine
 10
66.024286
 20
14.021042
 30
0.0
 11
-81.76077300000001
 21
14.021042
 31
0.0
  0
LINE
  5
224
330
1E
100
AcDbEntity
  8
003
  6
CENTER
 62
     0
100
AcDbLine
 10
47.48899699999999
 20
1.521042
 30
0.0
 11
32.015019
 21
1.521042
 31
0.0
  0
LINE
  5
225
330
1E
100
AcDbEntity
  8
003
  6
CENTER
 62
     0
100
AcDbLine
 10
37.97475
 20
8.838442
 30
0.0
 11
37.97475
 21
-9.892310999999999
 31
0.0
  0
LINE
  5
226
330
1E
100
AcDbEntity
  8
003
  6
CENTER
 62
     0
100
AcDbLine
 10
-8.025249999999997
 20
59.642087
 30
0.0
 11
-8.025249999999997
 21
-33.90788
 31
0.0
  0
LINE
  5
227
330
1E
100
AcDbEntity
  8
003
  6
CENTER
 62
     0
100
AcDbLine
 10
-71.02524999999999
 20
-13.84947999999999
 30
0.0
 11
-71.02524999999999
 21
-23.978958
 31
0.0
  0
LINE
  5
228
330
1E
100
AcDbEntity
  8
003
  6
CENTER
 62
     0
100
AcDbLine
 10
-65.514798
 20
-18.97895799999998
 30
0.0
 11
-76.02524999999999
 21
-18.97895799999998
 31
0.0
  0
LINE
  5
229
330
1E
100
AcDbEntity
  8
003
  6
CENTER
 62
     0
100
AcDbLine
 10
50.074424
 20
-18.97895799999998
 30
0.0
 11
59.97475
 21
-18.97895799999998
 31
0.0
  0
LINE
  5
22A
330
1E
100
AcDbEntity
  8
003
  6
CENTER
 62
     0
100
AcDbLine
 10
54.97475
 20
-14.847916
 30
0.0
 11
54.97475
 21
-23.978958
 31
0.0
  0
LINE
  5
22B
330
1E
100
AcDbEntity
  8
003
  6
CENTER
 62
     0
100
AcDbLine
 10
-48.819311
 20
1.521042
 30
0.0
 11
-63.119337
 21
1.521042
 31
0.0
  0
LINE
  5
22C
330
1E
100
AcDbEntity
  8
003
  6
CENTER
 62
     0
100
AcDbLine
 10
-54.02525
 20
9.719078999999997
 30
0.0
 11
-54.02525
 21
-13.592495
 31
0.0
  0
LINE
  5
22D
330
1E
100
AcDbEntity
  8
035
 62
     0
100
AcDbLine
 10
61.97475
 20
49.021042
 30
0.0
 11
61.97475
 21
-20.97895799999998
 31
0.0
  0
LINE
  5
22E
330
1E
100
AcDbEntity
  8
035
 62
     0
100
AcDbLine
 10
27.97475
 20
44.021042
 30
0.0
 11
-44.02524999999999
 21
44.021042
 31
0.0
  0
LINE
  5
22F
330
1E
100
AcDbEntity
  8
035
 62
     0
100
AcDbLine
 10
27.97475
 20
-15.97895799999998
 30
0.0
 11
-44.02524999999999
 21
-15.97895799999998
 31
0.0
  0
CIRCLE
  5
230
330
1E
100
AcDbEntity
  8
035
 62
     0
100
AcDbCircle
 10
54.97475
 20
47.02104199999999
 30
0.0
 40
1.649999999999999
  0
CIRCLE
  5
231
330
1E
100
AcDbEntity
  8
035
 62
     0
100
AcDbCircle
 10
54.97475
 20
-18.97895799999998
 30
0.0
 40
1.649999999999999
  0
CIRCLE
  5
232
330
1E
100
AcDbEntity
  8
035
 62
     0
100
AcDbCircle
 10
-71.02524999999999
 20
47.02104199999999
 30
0.0
 40
1.649999999999999
  0
CIRCLE
  5
233
330
1E
100
AcDbEntity
  8
035
 62
     0
100
AcDbCircle
 10
-71.02524999999999
 20
-18.97895799999998
 30
0.0
 40
1.649999999999999
  0
CIRCLE
  5
234
330
1E
100
AcDbEntity
  8
035
 62
     0
100
AcDbCircle
 10
37.97475
 20
26.521042
 30
0.0
 40
1.649999999999999
  0
CIRCLE
  5
235
330
1E
100
AcDbEntity
  8
035
 62
     0
100
AcDbCircle
 10
37.97475
 20
1.521042
 30
0.0
 40
1.649999999999999
  0
CIRCLE
  5
236
330
1E
100
AcDbEntity
  8
035
 62
     0
100
AcDbCircle
 10
-54.02525
 20
26.521042
 30
0.0
 40
1.649999999999999
  0
CIRCLE
  5
237
330
1E
100
AcDbEntity
  8
035
 62
     0
100
AcDbCircle
 10
-54.02525
 20
1.521042
 30
0.0
 40
1.649999999999999
  0
TEXT
  5
238
330
1E
100
AcDbEntity
  8
255
 62
     0
100
AcDbText
 10
0.596739
 20
-65.083507
 30
0.0
 40
3.2
  1
SECC
100
AcDbText
  0
TEXT
  5
239
330
1E
100
AcDbEntity
  8
255
 62
     0
100
AcDbText
 10
0.596739
 20
-70.583507
 30
0.0
 40
3.2
  1
1.6t
 41
1.333333
100
AcDbText
  0
TEXT
  5
23A
330
1E
100
AcDbEntity
  8
255
 62
     0
100
AcDbText
 10
37.596739
 20
-65.083507
 30
0.0
 40
3.2
  1
塗装
 41
0.833333
100
AcDbText
  0
TEXT
  5
23B
330
1E
100
AcDbEntity
  8
255
 62
     0
100
AcDbText
 10
37.596739
 20
-70.583507
 30
0.0
 40
3.2
  1
色：黒（半ツヤ）
 41
0.833333
100
AcDbText
  0
LINE
  5
23E
330
1E
100
AcDbEntity
  8
255
 62
     0
100
AcDbLine
 10
136.0
 20
92.5
 30
0.0
 11
-136.0
 21
92.5
 31
0.0
  0
TEXT
  5
23F
330
1E
100
AcDbEntity
  8
255
 62
     0
100
AcDbText
 10
142.1999999999998
 20
33.5
 30
0.0
 40
4.0
  1
図番
 50
90.00000300000001
 41
0.833333
100
AcDbText
  0
LINE
  5
240
330
1E
100
AcDbEntity
  8
255
 62
     0
100
AcDbLine
 10
144.0
 20
92.5
 30
0.0
 11
144.0
 21
31.5
 31
0.0
  0
LINE
  5
241
330
1E
100
AcDbEntity
  8
255
 62
     0
100
AcDbLine
 10
136.0
 20
43.5
 30
0.0
 11
144.0
 21
43.5
 31
0.0
  0
LINE
  5
242
330
1E
100
AcDbEntity
  8
255
 62
     0
100
AcDbLine
 10
144.0
 20
31.5
 30
0.0
 11
136.0
 21
31.5
 31
0.0
  0
LINE
  5
243
330
1E
100
AcDbEntity
  8
255
 62
     0
100
AcDbLine
 10
136.0
 20
92.5
 30
0.0
 11
144.0
 21
92.5
 31
0.0
  0
TEXT
  5
244
330
1E
100
AcDbEntity
  8
255
 62
     0
100
AcDbText
 10
122.65
 20
93.34999999999999
 30
0.0
 40
6.299999999999998
  1
A4
100
AcDbText
  0
LINE
  5
245
330
1E
100
AcDbEntity
  8
255
 62
     0
100
AcDbLine
 10
121.0
 20
100.5
 30
0.0
 11
121.0
 21
92.5
 31
0.0
  0
LINE
  5
246
330
1E
100
AcDbEntity
  8
255
 62
     0
100
AcDbLine
 10
136.0
 20
100.5
 30
0.0
 11
121.0
 21
100.5
 31
0.0
  0
LINE
  5
247
330
1E
100
AcDbEntity
  8
255
 62
     0
100
AcDbLine
 10
136.0
 20
100.5
 30
0.0
 11
136.0
 21
92.5
 31
0.0
  0
LINE
  5
248
330
1E
100
AcDbEntity
  8
255
 62
     0
100
AcDbLine
 10
-76.0
 20
100.5
 30
0.0
 11
-76.0
 21
92.5
 31
0.0
  0
LINE
  5
249
330
1E
100
AcDbEntity
  8
255
 62
     0
100
AcDbLine
 10
-76.0
 20
100.5
 30
0.0
 11
-136.0
 21
100.5
 31
0.0
  0
LINE
  5
24A
330
1E
100
AcDbEntity
  8
255
 62
     0
100
AcDbLine
 10
-91.0
 20
100.5
 30
0.0
 11
-91.0
 21
92.5
 31
0.0
  0
LINE
  5
24B
330
1E
100
AcDbEntity
  8
255
 62
     0
100
AcDbLine
 10
-106.0
 20
100.5
 30
0.0
 11
-106.0
 21
92.5
 31
0.0
  0
LINE
  5
24C
330
1E
100
AcDbEntity
  8
255
 62
     0
100
AcDbLine
 10
-121.0
 20
100.5
 30
0.0
 11
-121.0
 21
92.5
 31
0.0
  0
LINE
  5
24D
330
1E
100
AcDbEntity
  8
255
 62
     0
100
AcDbLine
 10
-136.0
 20
92.5
 30
0.0
 11
-136.0
 21
100.5
 31
0.0
  0
TEXT
  5
24E
330
1E
100
AcDbEntity
  8
255
 62
     0
100
AcDbText
 10
119.4
 20
-59.6
 30
0.0
 40
4.0
  1
備考
 41
0.833333
100
AcDbText
  0
TEXT
  5
24F
330
1E
100
AcDbEntity
  8
255
 62
     0
100
AcDbText
 10
65.4
 20
-59.4
 30
0.0
 40
4.0
  1
個数
 41
0.833333
100
AcDbText
  0
TEXT
  5
250
330
1E
100
AcDbEntity
  8
255
 62
     0
100
AcDbText
 10
15.4
 20
-59.4
 30
0.0
 40
4.0
  1
品名
 41
0.833333
100
AcDbText
  0
TEXT
  5
251
330
1E
100
AcDbEntity
  8
255
 62
     0
100
AcDbText
 10
-20.6
 20
-59.4
 30
0.0
 40
4.0
  1
図番
 41
0.833333
100
AcDbText
  0
TEXT
  5
252
330
1E
100
AcDbEntity
  8
255
 62
     0
100
AcDbText
 10
-32.0
 20
-59.4
 30
0.0
 40
4.0
  1
部番
 41
0.833333
100
AcDbText
  0
TEXT
  5
253
330
1E
100
AcDbEntity
  8
255
 62
     0
100
AcDbText
 10
-134.5999999999999
 20
-81.0
 30
0.0
 40
4.0
  1
記号
 41
0.833333
100
AcDbText
  0
TEXT
  5
254
330
1E
100
AcDbEntity
  8
255
 62
     0
100
AcDbText
 10
-74.59999999999998
 20
-81.0
 30
0.0
 40
4.0
  1
年月日
 41
0.833333
100
AcDbText
  0
TEXT
  5
255
330
1E
100
AcDbEntity
  8
255
 62
     0
100
AcDbText
 10
-59.0
 20
-81.0
 30
0.0
 40
4.0
  1
氏名
 41
0.833333
100
AcDbText
  0
TEXT
  5
256
330
1E
100
AcDbEntity
  8
255
 62
     0
100
AcDbText
 10
-45.2
 20
-81.0
 30
0.0
 40
4.0
  1
承認
 41
0.833333
100
AcDbText
  0
TEXT
  5
257
330
1E
100
AcDbEntity
  8
255
 62
     0
100
AcDbText
 10
67.0
 20
-62.0
 30
0.0
 40
4.0
  1
図名
 50
0.0000010000000028
 41
0.833333
 51
1.570796
  7
TATEGAKI
100
AcDbText
  0
TEXT
  5
258
330
1E
100
AcDbEntity
  8
255
 62
     0
100
AcDbText
 10
67.0
 20
-73.0
 30
0.0
 40
4.0
  1
図番
 50
0.0000010000000028
 41
0.833333
 51
1.570796
  7
TATEGAKI
100
AcDbText
  0
TEXT
  5
259
330
1E
100
AcDbEntity
  8
255
 62
     0
100
AcDbText
 10
43.0
 20
-78.0
 30
0.0
 40
4.0
  1
設計
 50
0.0000010000000028
 41
0.833333
 51
1.570796
  7
TATEGAKI
100
AcDbText
  0
TEXT
  5
25A
330
1E
100
AcDbEntity
  8
255
 62
     0
100
AcDbText
 10
17.0
 20
-78.0
 30
0.0
 40
4.0
  1
検図
 50
0.0000010000000028
 41
0.833333
 51
1.570796
  7
TATEGAKI
100
AcDbText
  0
TEXT
  5
25B
330
1E
100
AcDbEntity
  8
255
 62
     0
100
AcDbText
 10
-7.0
 20
-62.0
 30
0.0
 40
4.0
  1
材質
 50
0.0000010000000028
 41
0.833333
 51
1.570796
  7
TATEGAKI
100
AcDbText
  0
TEXT
  5
25C
330
1E
100
AcDbEntity
  8
255
 62
     0
100
AcDbText
 10
-7.0
 20
-78.0
 30
0.0
 40
4.0
  1
承認
 50
0.0000010000000028
 41
0.833333
 51
1.570796
  7
TATEGAKI
100
AcDbText
  0
TEXT
  5
25D
330
1E
100
AcDbEntity
  8
255
 62
     0
100
AcDbText
 10
-31.0
 20
-62.0
 30
0.0
 40
4.0
  1
図法
 50
0.0000010000000028
 41
0.833333
 51
1.570796
  7
TATEGAKI
100
AcDbText
  0
TEXT
  5
25E
330
1E
100
AcDbEntity
  8
255
 62
     0
100
AcDbText
 10
-31.0
 20
-73.0
 30
0.0
 40
4.0
  1
尺度
 50
0.0000010000000028
 41
0.833333
 51
1.570796
  7
TATEGAKI
100
AcDbText
  0
TEXT
  5
25F
330
1E
100
AcDbEntity
  8
255
 62
     0
100
AcDbText
 10
-31.0
 20
-83.49999999999999
 30
0.0
 40
4.0
  1
単位
 50
0.0000010000000028
 41
0.833333
 51
1.570796
  7
TATEGAKI
100
AcDbText
  0
TEXT
  5
260
330
1E
100
AcDbEntity
  8
255
 62
     0
100
AcDbText
 10
-73.0
 20
-83.0
 30
0.0
 40
3.0
  1
許容差
 50
0.0000010000000028
 41
0.833333
 51
1.570796
  7
TATEGAKI
100
AcDbText
  0
TEXT
  5
261
330
1E
100
AcDbEntity
  8
255
 62
     0
100
AcDbText
 10
-131.0
 20
-83.0
 30
0.0
 40
3.0
  1
製品名
 50
0.0000010000000028
 41
0.833333
 51
1.570796
  7
TATEGAKI
100
AcDbText
  0
TEXT
  5
262
330
1E
100
AcDbEntity
  8
255
 62
     0
100
AcDbText
 10
-109.2
 20
-81.0
 30
0.0
 40
4.0
  1
変更記事
 41
0.833333
100
AcDbText
  0
TEXT
  5
263
330
1E
100
AcDbEntity
  8
255
 62
     0
100
AcDbText
 10
101.4
 20
-59.4
 30
0.0
 40
4.0
  1
寸法
 41
0.833333
100
AcDbText
  0
TEXT
  5
264
330
1E
100
AcDbEntity
  8
255
 62
     0
100
AcDbText
 10
83.40000000000001
 20
-59.4
 30
0.0
 40
4.0
  1
材質
 41
0.833333
100
AcDbText
  0
LINE
  5
265
330
1E
100
AcDbEntity
  8
255
 62
     0
100
AcDbLine
 10
-136.0
 20
-54.5
 30
0.0
 11
136.0
 21
-54.5
 31
0.0
  0
LINE
  5
266
330
1E
100
AcDbEntity
  8
255
 62
     0
100
AcDbLine
 10
-136.0
 20
-92.5
 30
0.0
 11
136.0
 21
-92.5
 31
0.0
  0
LINE
  5
267
330
1E
100
AcDbEntity
  8
255
 62
     0
100
AcDbLine
 10
136.0
 20
-82.5
 30
0.0
 11
46.0
 21
-82.5
 31
0.0
  0
LINE
  5
268
330
1E
100
AcDbEntity
  8
255
 62
     0
100
AcDbLine
 10
64.0
 20
-54.5
 30
0.0
 11
64.0
 21
-92.5
 31
0.0
  0
LINE
  5
269
330
1E
100
AcDbEntity
  8
255
 62
     0
100
AcDbLine
 10
70.0
 20
-60.5
 30
0.0
 11
70.0
 21
-82.5
 31
0.0
  0
LINE
  5
26A
330
1E
100
AcDbEntity
  8
255
 62
     0
100
AcDbLine
 10
82.0
 20
-54.5
 30
0.0
 11
82.0
 21
-60.5
 31
0.0
  0
LINE
  5
26B
330
1E
100
AcDbEntity
  8
255
 62
     0
100
AcDbLine
 10
100.0
 20
-54.5
 30
0.0
 11
100.0
 21
-60.5
 31
0.0
  0
LINE
  5
26C
330
1E
100
AcDbEntity
  8
255
 62
     0
100
AcDbLine
 10
118.0
 20
-54.5
 30
0.0
 11
118.0
 21
-60.5
 31
0.0
  0
LINE
  5
26D
330
1E
100
AcDbEntity
  8
255
 62
     0
100
AcDbLine
 10
136.0
 20
-92.5
 30
0.0
 11
136.0
 21
-54.5
 31
0.0
  0
LINE
  5
26E
330
1E
100
AcDbEntity
  8
255
 62
     0
100
AcDbLine
 10
46.0
 20
-71.5
 30
0.0
 11
46.0
 21
-92.5
 31
0.0
  0
LINE
  5
26F
330
1E
100
AcDbEntity
  8
255
 62
     0
100
AcDbLine
 10
136.0
 20
-71.5
 30
0.0
 11
-34.0
 21
-71.5
 31
0.0
  0
LINE
  5
270
330
1E
100
AcDbEntity
  8
255
 62
     0
100
AcDbLine
 10
40.0
 20
-71.5
 30
0.0
 11
40.0
 21
-92.5
 31
0.0
  0
LINE
  5
271
330
1E
100
AcDbEntity
  8
255
 62
     0
100
AcDbLine
 10
40.0
 20
-82.5
 30
0.0
 11
20.0
 21
-82.5
 31
0.0
  0
LINE
  5
272
330
1E
100
AcDbEntity
  8
255
 62
     0
100
AcDbLine
 10
20.0
 20
-71.5
 30
0.0
 11
20.0
 21
-92.5
 31
0.0
  0
LINE
  5
273
330
1E
100
AcDbEntity
  8
255
 62
     0
100
AcDbLine
 10
14.0
 20
-71.5
 30
0.0
 11
14.0
 21
-92.5
 31
0.0
  0
LINE
  5
274
330
1E
100
AcDbEntity
  8
255
 62
     0
100
AcDbLine
 10
14.0
 20
-82.5
 30
0.0
 11
-4.0
 21
-82.5
 31
0.0
  0
LINE
  5
275
330
1E
100
AcDbEntity
  8
255
 62
     0
100
AcDbLine
 10
-4.0
 20
-60.5
 30
0.0
 11
-4.0
 21
-92.5
 31
0.0
  0
LINE
  5
276
330
1E
100
AcDbEntity
  8
255
 62
     0
100
AcDbLine
 10
-10.0
 20
-60.5
 30
0.0
 11
-10.0
 21
-92.5
 31
0.0
  0
LINE
  5
277
330
1E
100
AcDbEntity
  8
255
 62
     0
100
AcDbLine
 10
-34.0
 20
-82.5
 30
0.0
 11
-10.0
 21
-82.5
 31
0.0
  0
LINE
  5
278
330
1E
100
AcDbEntity
  8
255
 62
     0
100
AcDbLine
 10
-28.0
 20
-60.5
 30
0.0
 11
-28.0
 21
-92.5
 31
0.0
  0
LINE
  5
279
330
1E
100
AcDbEntity
  8
255
 62
     0
100
AcDbLine
 10
136.0
 20
-60.5
 30
0.0
 11
-34.0
 21
-60.5
 31
0.0
  0
LINE
  5
27A
330
1E
100
AcDbEntity
  8
255
 62
     0
100
AcDbLine
 10
-22.0
 20
-54.5
 30
0.0
 11
-22.0
 21
-60.5
 31
0.0
  0
LINE
  5
27B
330
1E
100
AcDbEntity
  8
255
 62
     0
100
AcDbLine
 10
14.0
 20
-54.5
 30
0.0
 11
14.0
 21
-60.5
 31
0.0
  0
LINE
  5
27C
330
1E
100
AcDbEntity
  8
255
 62
     0
100
AcDbLine
 10
-34.0
 20
-61.5
 30
0.0
 11
-136.0
 21
-61.5
 31
0.0
  0
LINE
  5
27D
330
1E
100
AcDbEntity
  8
255
 62
     0
100
AcDbLine
 10
-48.0
 20
-54.5
 30
0.0
 11
-48.0
 21
-82.5
 31
0.0
  0
LINE
  5
27E
330
1E
100
AcDbEntity
  8
255
 62
     0
100
AcDbLine
 10
-62.0
 20
-54.5
 30
0.0
 11
-62.0
 21
-82.5
 31
0.0
  0
LINE
  5
27F
330
1E
100
AcDbEntity
  8
255
 62
     0
100
AcDbLine
 10
-34.0
 20
-68.5
 30
0.0
 11
-136.0
 21
-68.5
 31
0.0
  0
LINE
  5
280
330
1E
100
AcDbEntity
  8
255
 62
     0
100
AcDbLine
 10
-126.0
 20
-54.5
 30
0.0
 11
-126.0
 21
-92.5
 31
0.0
  0
LINE
  5
281
330
1E
100
AcDbEntity
  8
255
 62
     0
100
AcDbLine
 10
-76.0
 20
-54.5
 30
0.0
 11
-76.0
 21
-92.5
 31
0.0
  0
LINE
  5
282
330
1E
100
AcDbEntity
  8
255
 62
     0
100
AcDbLine
 10
-34.0
 20
-75.5
 30
0.0
 11
-136.0
 21
-75.5
 31
0.0
  0
LINE
  5
283
330
1E
100
AcDbEntity
  8
255
 62
     0
100
AcDbLine
 10
-34.0
 20
-82.5
 30
0.0
 11
-136.0
 21
-82.5
 31
0.0
  0
LINE
  5
284
330
1E
100
AcDbEntity
  8
255
 62
     0
100
AcDbLine
 10
-70.0
 20
-82.5
 30
0.0
 11
-70.0
 21
-92.5
 31
0.0
  0
LINE
  5
285
330
1E
100
AcDbEntity
  8
255
 62
     0
100
AcDbLine
 10
-34.0
 20
-54.5
 30
0.0
 11
-34.0
 21
-92.5
 31
0.0
  0
LINE
  5
286
330
1E
100
AcDbEntity
  8
255
 62
     0
100
AcDbLine
 10
80.15068799999998
 20
-90.011004
 30
0.0
 11
77.070688
 21
-90.011004
 31
0.0
  0
LINE
  5
287
330
1E
100
AcDbEntity
  8
255
 62
     0
100
AcDbLine
 10
85.870688
 20
-87.731004
 30
0.0
 11
85.870688
 21
-90.011004
 31
0.0
  0
LINE
  5
288
330
1E
100
AcDbEntity
  8
255
 62
     0
100
AcDbLine
 10
86.670688
 20
-90.011004
 30
0.0
 11
86.670688
 21
-86.811004
 31
0.0
  0
LINE
  5
289
330
1E
100
AcDbEntity
  8
255
 62
     0
100
AcDbLine
 10
82.91068800000003
 20
-86.811004
 30
0.0
 11
82.91068800000003
 21
-90.011004
 31
0.0
  0
LINE
  5
28A
330
1E
100
AcDbEntity
  8
255
 62
     0
100
AcDbLine
 10
84.83068799999998
 20
-90.011004
 30
0.0
 11
84.83068799999998
 21
-87.731004
 31
0.0
  0
LINE
  5
28B
330
1E
100
AcDbEntity
  8
255
 62
     0
100
AcDbLine
 10
87.710688
 20
-88.65100400000001
 30
0.0
 11
87.710688
 21
-90.011004
 31
0.0
  0
LINE
  5
28C
330
1E
100
AcDbEntity
  8
255
 62
     0
100
AcDbLine
 10
89.630688
 20
-90.011004
 30
0.0
 11
89.630688
 21
-89.371004
 31
0.0
  0
LINE
  5
28D
330
1E
100
AcDbEntity
  8
255
 62
     0
100
AcDbLine
 10
78.55068799999997
 20
-87.291004
 30
0.0
 11
81.070688
 21
-87.291004
 31
0.0
  0
LINE
  5
28E
330
1E
100
AcDbEntity
  8
255
 62
     0
100
AcDbLine
 10
79.590688
 20
-89.53100400000002
 30
0.0
 11
77.070688
 21
-89.53100400000002
 31
0.0
  0
LINE
  5
28F
330
1E
100
AcDbEntity
  8
255
 62
     0
100
AcDbLine
 10
80.15068799999998
 20
-88.17100400000002
 30
0.0
 11
78.55068799999997
 21
-88.17100400000002
 31
0.0
  0
LINE
  5
290
330
1E
100
AcDbEntity
  8
255
 62
     0
100
AcDbLine
 10
79.590688
 20
-88.65100400000001
 30
0.0
 11
77.990688
 21
-88.65100400000001
 31
0.0
  0
LINE
  5
291
330
1E
100
AcDbEntity
  8
255
 62
     0
100
AcDbLine
 10
74.56278199999998
 20
-89.893446
 30
0.0
 11
75.241167
 21
-89.21506200000001
 31
0.0
  0
LINE
  5
292
330
1E
100
AcDbEntity
  8
255
 62
     0
100
AcDbLine
 10
74.21527600000001
 20
-89.90154100000003
 30
0.0
 11
75.249262
 21
-88.86755500000004
 31
0.0
  0
LINE
  5
293
330
1E
100
AcDbEntity
  8
255
 62
     0
100
AcDbLine
 10
73.87586500000002
 20
-89.90154100000003
 30
0.0
 11
75.249262
 21
-88.52814399999996
 31
0.0
  0
LINE
  5
294
330
1E
100
AcDbEntity
  8
255
 62
     0
100
AcDbLine
 10
73.53645300000002
 20
-89.90154100000003
 30
0.0
 11
75.249262
 21
-88.18873299999998
 31
0.0
  0
LINE
  5
295
330
1E
100
AcDbEntity
  8
255
 62
     0
100
AcDbLine
 10
73.19704200000002
 20
-89.90154100000003
 30
0.0
 11
75.249262
 21
-87.849321
 31
0.0
  0
LINE
  5
296
330
1E
100
AcDbEntity
  8
255
 62
     0
100
AcDbLine
 10
72.85763100000001
 20
-89.90154100000003
 30
0.0
 11
75.249262
 21
-87.50990999999997
 31
0.0
  0
LINE
  5
297
330
1E
100
AcDbEntity
  8
255
 62
     0
100
AcDbLine
 10
72.51822
 20
-89.90154100000003
 30
0.0
 11
75.249262
 21
-87.17049899999997
 31
0.0
  0
LINE
  5
298
330
1E
100
AcDbEntity
  8
255
 62
     0
100
AcDbLine
 10
72.17880799999997
 20
-89.90154100000003
 30
0.0
 11
75.249262
 21
-86.83108799999997
 31
0.0
  0
LINE
  5
299
330
1E
100
AcDbEntity
  8
255
 62
     0
100
AcDbLine
 10
71.83939699999998
 20
-89.90154100000003
 30
0.0
 11
75.249262
 21
-86.491676
 31
0.0
  0
LINE
  5
29A
330
1E
100
AcDbEntity
  8
255
 62
     0
100
AcDbLine
 10
71.49998599999998
 20
-89.90154100000003
 30
0.0
 11
75.249262
 21
-86.152265
 31
0.0
  0
LINE
  5
29B
330
1E
100
AcDbEntity
  8
255
 62
     0
100
AcDbLine
 10
71.160575
 20
-89.90154100000003
 30
0.0
 11
75.08421899999998
 21
-85.97789699999998
 31
0.0
  0
LINE
  5
29C
330
1E
100
AcDbEntity
  8
255
 62
     0
100
AcDbLine
 10
70.151028
 20
-89.512912
 30
0.0
 11
73.762399
 21
-85.90154100000004
 31
0.0
  0
LINE
  5
29D
330
1E
100
AcDbEntity
  8
255
 62
     0
100
AcDbLine
 10
68.634702
 20
-89.54237500000003
 30
0.0
 11
72.26749599999997
 21
-85.90958099999998
 31
0.0
  0
LINE
  5
29E
330
1E
100
AcDbEntity
  8
255
 62
     0
100
AcDbLine
 10
71.660593
 20
-86.29020999999999
 30
0.0
 11
68.049262
 21
-89.90154100000003
 31
0.0
  0
LINE
  5
29F
330
1E
100
AcDbEntity
  8
255
 62
     0
100
AcDbLine
 10
72.841181
 20
-86.37021
 30
0.0
 11
69.245931
 21
-89.96546
 31
0.0
  0
ARC
  5
2A0
330
1E
100
AcDbEntity
  8
255
 62
     0
100
AcDbCircle
 10
73.972552
 20
-87.501581
 30
0.0
 40
1.6
100
AcDbArc
 50
98.130102
 51
135.0
  0
ARC
  5
2A1
330
1E
100
AcDbEntity
  8
255
 62
     0
100
AcDbCircle
 10
67.503331
 20
-88.411004
 30
0.0
 40
1.6
100
AcDbArc
 50
289.158067
 51
315.0
  0
ARC
  5
2A2
330
1E
100
AcDbEntity
  8
255
 62
     0
100
AcDbCircle
 10
72.791964
 20
-87.42158100000002
 30
0.0
 40
1.6
100
AcDbArc
 50
109.1580669999999
 51
135.0
  0
LINE
  5
2A3
330
1E
100
AcDbEntity
  8
255
 62
     0
100
AcDbLine
 10
69.78813599999999
 20
-89.649529
 30
0.0
 11
73.39084799999998
 21
-86.04681799999999
 31
0.0
  0
ARC
  5
2A4
330
1E
100
AcDbEntity
  8
255
 62
     0
100
AcDbCircle
 10
75.572592
 20
-87.50154100000001
 30
0.0
 40
1.6
100
AcDbArc
 50
101.3895139999999
 51
135.0
  0
LINE
  5
2A5
330
1E
100
AcDbEntity
  8
255
 62
     0
100
AcDbLine
 10
74.441221
 20
-86.37017
 30
0.0
 11
70.90985100000001
 21
-89.90154100000003
 31
0.0
  0
LINE
  5
2A6
330
1E
100
AcDbEntity
  8
255
 62
     0
100
AcDbLine
 10
70.90985100000001
 20
-89.90154100000003
 30
0.0
 11
74.44926200000002
 21
-89.90154100000003
 31
0.0
  0
ARC
  5
2A7
330
1E
100
AcDbEntity
  8
255
 62
     0
100
AcDbCircle
 10
74.44926200000002
 20
-89.10154099999996
 30
0.0
 40
0.8
100
AcDbArc
 50
270.0
 51
0.0
  0
LINE
  5
2A8
330
1E
100
AcDbEntity
  8
255
 62
     0
100
AcDbLine
 10
75.249262
 20
-89.10154099999996
 30
0.0
 11
75.249262
 21
-85.93455099999998
 31
0.0
  0
ARC
  5
2A9
330
1E
100
AcDbEntity
  8
255
 62
     0
100
AcDbCircle
 10
69.01965699999999
 20
-88.381541
 30
0.0
 40
1.6
100
AcDbArc
 50
278.130102
 51
315.0
  0
ARC
  5
2AA
330
1E
100
AcDbEntity
  8
255
 62
     0
100
AcDbCircle
 10
77.990688
 20
-87.731004
 30
0.0
 40
0.9200000000000001
100
AcDbArc
 50
90.0
 51
270.0
  0
ARC
  5
2AB
330
1E
100
AcDbEntity
  8
255
 62
     0
100
AcDbCircle
 10
79.590688
 20
-89.09100399999998
 30
0.0
 40
0.4400000000000003
100
AcDbArc
 50
270.0
 51
90.0
  0
ARC
  5
2AC
330
1E
100
AcDbEntity
  8
255
 62
     0
100
AcDbCircle
 10
78.55068799999997
 20
-87.731004
 30
0.0
 40
0.4400000000000003
100
AcDbArc
 50
90.0
 51
270.0
  0
ARC
  5
2AD
330
1E
100
AcDbEntity
  8
255
 62
     0
100
AcDbCircle
 10
80.15068799999998
 20
-89.09100399999998
 30
0.0
 40
0.9200000000000001
100
AcDbArc
 50
270.0
 51
90.0
  0
LINE
  5
2AE
330
1E
100
AcDbEntity
  8
255
 62
     0
100
AcDbLine
 10
82.91068800000003
 20
-90.011004
 30
0.0
 11
81.870688
 21
-90.011004
 31
0.0
  0
LINE
  5
2AF
330
1E
100
AcDbEntity
  8
255
 62
     0
100
AcDbLine
 10
83.27068800000002
 20
-87.291004
 30
0.0
 11
83.27068800000002
 21
-86.811004
 31
0.0
  0
LINE
  5
2B0
330
1E
100
AcDbEntity
  8
255
 62
     0
100
AcDbLine
 10
77.990688
 20
-86.811004
 30
0.0
 11
81.070688
 21
-86.811004
 31
0.0
  0
LINE
  5
2B1
330
1E
100
AcDbEntity
  8
255
 62
     0
100
AcDbLine
 10
82.91068800000003
 20
-86.811004
 30
0.0
 11
81.870688
 21
-86.811004
 31
0.0
  0
LINE
  5
2B2
330
1E
100
AcDbEntity
  8
255
 62
     0
100
AcDbLine
 10
81.870688
 20
-90.011004
 30
0.0
 11
81.870688
 21
-86.811004
 31
0.0
  0
LINE
  5
2B3
330
1E
100
AcDbEntity
  8
255
 62
     0
100
AcDbLine
 10
85.870688
 20
-90.011004
 30
0.0
 11
84.83068799999998
 21
-90.011004
 31
0.0
  0
LINE
  5
2B4
330
1E
100
AcDbEntity
  8
255
 62
     0
100
AcDbLine
 10
84.950688
 20
-86.811004
 30
0.0
 11
83.27068800000002
 21
-86.811004
 31
0.0
  0
LINE
  5
2B5
330
1E
100
AcDbEntity
  8
255
 62
     0
100
AcDbLine
 10
83.27068800000002
 20
-87.291004
 30
0.0
 11
84.39068799999999
 21
-87.291004
 31
0.0
  0
ARC
  5
2B6
330
1E
100
AcDbEntity
  8
255
 62
     0
100
AcDbCircle
 10
84.39068799999999
 20
-87.731004
 30
0.0
 40
0.4400000000000003
100
AcDbArc
 50
0.0
 51
90.0
  0
LINE
  5
2B7
330
1E
100
AcDbEntity
  8
255
 62
     0
100
AcDbLine
 10
90.67068799999999
 20
-90.011004
 30
0.0
 11
89.630688
 21
-90.011004
 31
0.0
  0
LINE
  5
2B8
330
1E
100
AcDbEntity
  8
255
 62
     0
100
AcDbLine
 10
89.630688
 20
-86.811004
 30
0.0
 11
90.67068799999999
 21
-86.811004
 31
0.0
  0
ARC
  5
2B9
330
1E
100
AcDbEntity
  8
255
 62
     0
100
AcDbCircle
 10
84.950688
 20
-87.731004
 30
0.0
 40
0.9200000000000001
100
AcDbArc
 50
0.0
 51
90.0
  0
LINE
  5
2BA
330
1E
100
AcDbEntity
  8
255
 62
     0
100
AcDbLine
 10
87.710688
 20
-88.17100400000002
 30
0.0
 11
89.39068799999999
 21
-88.17100400000002
 31
0.0
  0
LINE
  5
2BB
330
1E
100
AcDbEntity
  8
255
 62
     0
100
AcDbLine
 10
89.39068799999999
 20
-88.65100400000001
 30
0.0
 11
87.710688
 21
-88.65100400000001
 31
0.0
  0
LINE
  5
2BC
330
1E
100
AcDbEntity
  8
255
 62
     0
100
AcDbLine
 10
90.67068799999999
 20
-89.61100400000002
 30
0.0
 11
90.67068799999999
 21
-90.011004
 31
0.0
  0
ARC
  5
2BD
330
1E
100
AcDbEntity
  8
255
 62
     0
100
AcDbCircle
 10
89.470688
 20
-87.211004
 30
0.0
 40
1.199999999999999
100
AcDbArc
 50
270.0
 51
0.0
  0
ARC
  5
2BE
330
1E
100
AcDbEntity
  8
255
 62
     0
100
AcDbCircle
 10
89.470688
 20
-89.61100400000002
 30
0.0
 40
1.199999999999999
100
AcDbArc
 50
0.0
 51
90.0
  0
ARC
  5
2BF
330
1E
100
AcDbEntity
  8
255
 62
     0
100
AcDbCircle
 10
88.43068800000002
 20
-89.371004
 30
0.0
 40
1.199999999999999
100
AcDbArc
 50
0.0
 51
36.869898
  0
LINE
  5
2C0
330
1E
100
AcDbEntity
  8
255
 62
     0
100
AcDbLine
 10
89.630688
 20
-87.451004
 30
0.0
 11
89.630688
 21
-86.811004
 31
0.0
  0
ARC
  5
2C1
330
1E
100
AcDbEntity
  8
255
 62
     0
100
AcDbCircle
 10
88.43068800000002
 20
-87.451004
 30
0.0
 40
1.199999999999999
100
AcDbArc
 50
323.130102
 51
0.0
  0
LINE
  5
2C2
330
1E
100
AcDbEntity
  8
255
 62
     0
100
AcDbLine
 10
87.710688
 20
-90.011004
 30
0.0
 11
86.670688
 21
-90.011004
 31
0.0
  0
LINE
  5
2C3
330
1E
100
AcDbEntity
  8
255
 62
     0
100
AcDbLine
 10
90.67068799999999
 20
-86.811004
 30
0.0
 11
90.67068799999999
 21
-87.211004
 31
0.0
  0
LINE
  5
2C4
330
1E
100
AcDbEntity
  8
255
 62
     0
100
AcDbLine
 10
87.710688
 20
-86.811004
 30
0.0
 11
86.670688
 21
-86.811004
 31
0.0
  0
LINE
  5
2C5
330
1E
100
AcDbEntity
  8
255
 62
     0
100
AcDbLine
 10
87.710688
 20
-86.811004
 30
0.0
 11
87.710688
 21
-88.17100400000002
 31
0.0
  0
LINE
  5
2C6
330
1E
100
AcDbEntity
  8
255
 62
     0
100
AcDbLine
 10
81.070688
 20
-86.811004
 30
0.0
 11
81.070688
 21
-87.291004
 31
0.0
  0
LINE
  5
2C7
330
1E
100
AcDbEntity
  8
255
 62
     0
100
AcDbLine
 10
77.070688
 20
-89.53100400000002
 30
0.0
 11
77.070688
 21
-90.011004
 31
0.0
  0
TEXT
  5
2C8
330
1E
100
AcDbEntity
  8
255
 62
     0
100
AcDbText
 10
93.25743100000002
 20
-90.41100400000001
 30
0.0
 40
4.0
  1
三化工業株式会社
100
AcDbText
  0
LINE
  5
2C9
330
1E
100
AcDbEntity
  8
255
 62
     0
100
AcDbLine
 10
80.49600500000002
 20
-89.94373900000002
 30
0.0
 11
81.00342299999999
 21
-89.436321
 31
0.0
  0
LINE
  5
2CA
330
1E
100
AcDbEntity
  8
255
 62
     0
100
AcDbLine
 10
80.204012
 20
-90.009457
 30
0.0
 11
81.069141
 21
-89.144328
 31
0.0
  0
LINE
  5
2CB
330
1E
100
AcDbEntity
  8
255
 62
     0
100
AcDbLine
 10
79.976191
 20
-90.011004
 30
0.0
 11
81.056596
 21
-88.930599
 31
0.0
  0
LINE
  5
2CC
330
1E
100
AcDbEntity
  8
255
 62
     0
100
AcDbLine
 10
79.74991700000003
 20
-90.011004
 30
0.0
 11
81.006792
 21
-88.75412800000002
 31
0.0
  0
LINE
  5
2CD
330
1E
100
AcDbEntity
  8
255
 62
     0
100
AcDbLine
 10
79.52364300000002
 20
-90.011004
 30
0.0
 11
80.930998
 21
-88.60364799999997
 31
0.0
  0
LINE
  5
2CE
330
1E
100
AcDbEntity
  8
255
 62
     0
100
AcDbLine
 10
79.297368
 20
-90.011004
 30
0.0
 11
80.833712
 21
-88.474661
 31
0.0
  0
LINE
  5
2CF
330
1E
100
AcDbEntity
  8
255
 62
     0
100
AcDbLine
 10
79.07109399999999
 20
-90.011004
 30
0.0
 11
79.55109399999997
 21
-89.53100400000002
 31
0.0
  0
LINE
  5
2D0
330
1E
100
AcDbEntity
  8
255
 62
     0
100
AcDbLine
 10
80.02904800000001
 20
-89.05305
 30
0.0
 11
80.71651700000002
 21
-88.36558199999997
 31
0.0
  0
LINE
  5
2D1
330
1E
100
AcDbEntity
  8
255
 62
     0
100
AcDbLine
 10
78.84482
 20
-90.011004
 30
0.0
 11
79.32481999999997
 21
-89.53100400000002
 31
0.0
  0
LINE
  5
2D2
330
1E
100
AcDbEntity
  8
255
 62
     0
100
AcDbLine
 10
79.97645
 20
-88.879374
 30
0.0
 11
80.57902400000001
 21
-88.27679999999999
 31
0.0
  0
LINE
  5
2D3
330
1E
100
AcDbEntity
  8
255
 62
     0
100
AcDbLine
 10
78.618546
 20
-90.011004
 30
0.0
 11
79.098546
 21
-89.53100400000002
 31
0.0
  0
LINE
  5
2D4
330
1E
100
AcDbEntity
  8
255
 62
     0
100
AcDbLine
 10
79.87465
 20
-88.7549
 30
0.0
 11
80.41865599999999
 21
-88.21089399999998
 31
0.0
  0
LINE
  5
2D5
330
1E
100
AcDbEntity
  8
255
 62
     0
100
AcDbLine
 10
78.39227199999998
 20
-90.011004
 30
0.0
 11
78.87227199999998
 21
-89.53100400000002
 31
0.0
  0
LINE
  5
2D6
330
1E
100
AcDbEntity
  8
255
 62
     0
100
AcDbLine
 10
79.729726
 20
-88.673549
 30
0.0
 11
80.228938
 21
-88.17433800000001
 31
0.0
  0
LINE
  5
2D7
330
1E
100
AcDbEntity
  8
255
 62
     0
100
AcDbLine
 10
78.165998
 20
-90.011004
 30
0.0
 11
78.64599799999997
 21
-89.53100400000002
 31
0.0
  0
LINE
  5
2D8
330
1E
100
AcDbEntity
  8
255
 62
     0
100
AcDbLine
 10
79.525998
 20
-88.65100400000001
 30
0.0
 11
80.00599799999998
 21
-88.17100400000002
 31
0.0
  0
LINE
  5
2D9
330
1E
100
AcDbEntity
  8
255
 62
     0
100
AcDbLine
 10
80.885998
 20
-87.291004
 30
0.0
 11
81.070688
 21
-87.106314
 31
0.0
  0
LINE
  5
2DA
330
1E
100
AcDbEntity
  8
255
 62
     0
100
AcDbLine
 10
77.939723
 20
-90.011004
 30
0.0
 11
78.41972300000001
 21
-89.53100400000002
 31
0.0
  0
LINE
  5
2DB
330
1E
100
AcDbEntity
  8
255
 62
     0
100
AcDbLine
 10
79.299723
 20
-88.65100400000001
 30
0.0
 11
79.77972300000002
 21
-88.17100400000002
 31
0.0
  0
LINE
  5
2DC
330
1E
100
AcDbEntity
  8
255
 62
     0
100
AcDbLine
 10
80.659723
 20
-87.291004
 30
0.0
 11
81.070688
 21
-86.880039
 31
0.0
  0
LINE
  5
2DD
330
1E
100
AcDbEntity
  8
255
 62
     0
100
AcDbLine
 10
77.71344899999999
 20
-90.011004
 30
0.0
 11
78.193449
 21
-89.53100400000002
 31
0.0
  0
LINE
  5
2DE
330
1E
100
AcDbEntity
  8
255
 62
     0
100
AcDbLine
 10
79.073449
 20
-88.65100400000001
 30
0.0
 11
79.553449
 21
-88.17100400000002
 31
0.0
  0
LINE
  5
2DF
330
1E
100
AcDbEntity
  8
255
 62
     0
100
AcDbLine
 10
80.43344899999999
 20
-87.291004
 30
0.0
 11
80.91344900000001
 21
-86.811004
 31
0.0
  0
LINE
  5
2E0
330
1E
100
AcDbEntity
  8
255
 62
     0
100
AcDbLine
 10
77.48717499999997
 20
-90.011004
 30
0.0
 11
77.96717499999998
 21
-89.53100400000002
 31
0.0
  0
LINE
  5
2E1
330
1E
100
AcDbEntity
  8
255
 62
     0
100
AcDbLine
 10
78.84717499999998
 20
-88.65100400000001
 30
0.0
 11
79.32717499999998
 21
-88.17100400000002
 31
0.0
  0
LINE
  5
2E2
330
1E
100
AcDbEntity
  8
255
 62
     0
100
AcDbLine
 10
80.20717500000001
 20
-87.291004
 30
0.0
 11
80.68717499999998
 21
-86.811004
 31
0.0
  0
LINE
  5
2E3
330
1E
100
AcDbEntity
  8
255
 62
     0
100
AcDbLine
 10
77.260901
 20
-90.011004
 30
0.0
 11
77.74090100000002
 21
-89.53100400000002
 31
0.0
  0
LINE
  5
2E4
330
1E
100
AcDbEntity
  8
255
 62
     0
100
AcDbLine
 10
78.620901
 20
-88.65100400000001
 30
0.0
 11
79.10090100000002
 21
-88.17100400000002
 31
0.0
  0
LINE
  5
2E5
330
1E
100
AcDbEntity
  8
255
 62
     0
100
AcDbLine
 10
79.980901
 20
-87.291004
 30
0.0
 11
80.460901
 21
-86.811004
 31
0.0
  0
LINE
  5
2E6
330
1E
100
AcDbEntity
  8
255
 62
     0
100
AcDbLine
 10
77.070688
 20
-89.97494300000004
 30
0.0
 11
77.51462700000002
 21
-89.53100400000002
 31
0.0
  0
LINE
  5
2E7
330
1E
100
AcDbEntity
  8
255
 62
     0
100
AcDbLine
 10
78.394627
 20
-88.65100400000001
 30
0.0
 11
78.874627
 21
-88.17100400000002
 31
0.0
  0
LINE
  5
2E8
330
1E
100
AcDbEntity
  8
255
 62
     0
100
AcDbLine
 10
79.754627
 20
-87.291004
 30
0.0
 11
80.23462700000001
 21
-86.811004
 31
0.0
  0
LINE
  5
2E9
330
1E
100
AcDbEntity
  8
255
 62
     0
100
AcDbLine
 10
77.070688
 20
-89.748669
 30
0.0
 11
77.288353
 21
-89.53100400000002
 31
0.0
  0
LINE
  5
2EA
330
1E
100
AcDbEntity
  8
255
 62
     0
100
AcDbLine
 10
78.168353
 20
-88.65100400000001
 30
0.0
 11
78.648353
 21
-88.17100400000002
 31
0.0
  0
LINE
  5
2EB
330
1E
100
AcDbEntity
  8
255
 62
     0
100
AcDbLine
 10
79.52835300000002
 20
-87.291004
 30
0.0
 11
80.008353
 21
-86.811004
 31
0.0
  0
LINE
  5
2EC
330
1E
100
AcDbEntity
  8
255
 62
     0
100
AcDbLine
 10
77.94329999999998
 20
-88.649783
 30
0.0
 11
78.437015
 21
-88.15606700000001
 31
0.0
  0
LINE
  5
2ED
330
1E
100
AcDbEntity
  8
255
 62
     0
100
AcDbLine
 10
79.30207800000002
 20
-87.291004
 30
0.0
 11
79.78207799999998
 21
-86.811004
 31
0.0
  0
LINE
  5
2EE
330
1E
100
AcDbEntity
  8
255
 62
     0
100
AcDbLine
 10
77.74830699999998
 20
-88.61850099999998
 30
0.0
 11
78.28504399999999
 21
-88.081765
 31
0.0
  0
LINE
  5
2EF
330
1E
100
AcDbEntity
  8
255
 62
     0
100
AcDbLine
 10
79.075804
 20
-87.291004
 30
0.0
 11
79.55580400000002
 21
-86.811004
 31
0.0
  0
LINE
  5
2F0
330
1E
100
AcDbEntity
  8
255
 62
     0
100
AcDbLine
 10
77.58420100000002
 20
-88.55633299999999
 30
0.0
 11
78.177093
 21
-87.963441
 31
0.0
  0
LINE
  5
2F1
330
1E
100
AcDbEntity
  8
255
 62
     0
100
AcDbLine
 10
78.84953
 20
-87.291004
 30
0.0
 11
79.32953000000002
 21
-86.811004
 31
0.0
  0
LINE
  5
2F2
330
1E
100
AcDbEntity
  8
255
 62
     0
100
AcDbLine
 10
77.44359799999998
 20
-88.47066099999997
 30
0.0
 11
78.115877
 21
-87.79838199999998
 31
0.0
  0
LINE
  5
2F3
330
1E
100
AcDbEntity
  8
255
 62
     0
100
AcDbLine
 10
78.62325600000001
 20
-87.291004
 30
0.0
 11
79.103256
 21
-86.811004
 31
0.0
  0
LINE
  5
2F4
330
1E
100
AcDbEntity
  8
255
 62
     0
100
AcDbLine
 10
77.323515
 20
-88.36447099999999
 30
0.0
 11
78.160678
 21
-87.527308
 31
0.0
  0
LINE
  5
2F5
330
1E
100
AcDbEntity
  8
255
 62
     0
100
AcDbLine
 10
78.346992
 20
-87.34099399999998
 30
0.0
 11
78.87698199999999
 21
-86.811004
 31
0.0
  0
LINE
  5
2F6
330
1E
100
AcDbEntity
  8
255
 62
     0
100
AcDbLine
 10
77.223279
 20
-88.23843199999997
 30
0.0
 11
78.65070799999998
 21
-86.811004
 31
0.0
  0
LINE
  5
2F7
330
1E
100
AcDbEntity
  8
255
 62
     0
100
AcDbLine
 10
77.144163
 20
-88.091275
 30
0.0
 11
78.42443299999998
 21
-86.811004
 31
0.0
  0
LINE
  5
2F8
330
1E
100
AcDbEntity
  8
255
 62
     0
100
AcDbLine
 10
77.09011099999997
 20
-87.919052
 30
0.0
 11
78.19815899999998
 21
-86.811004
 31
0.0
  0
LINE
  5
2F9
330
1E
100
AcDbEntity
  8
255
 62
     0
100
AcDbLine
 10
77.07088399999998
 20
-87.712005
 30
0.0
 11
77.97168899999999
 21
-86.81119999999998
 31
0.0
  0
LINE
  5
2FA
330
1E
100
AcDbEntity
  8
255
 62
     0
100
AcDbLine
 10
77.118583
 20
-87.438032
 30
0.0
 11
77.697716
 21
-86.85889899999997
 31
0.0
  0
LINE
  5
2FB
330
1E
100
AcDbEntity
  8
255
 62
     0
100
AcDbLine
 10
85.859319
 20
-90.011004
 30
0.0
 11
85.870688
 21
-89.99963499999998
 31
0.0
  0
LINE
  5
2FC
330
1E
100
AcDbEntity
  8
255
 62
     0
100
AcDbLine
 10
85.63304499999999
 20
-90.011004
 30
0.0
 11
85.870688
 21
-89.773361
 31
0.0
  0
LINE
  5
2FD
330
1E
100
AcDbEntity
  8
255
 62
     0
100
AcDbLine
 10
85.40677099999998
 20
-90.011004
 30
0.0
 11
85.870688
 21
-89.54708700000002
 31
0.0
  0
LINE
  5
2FE
330
1E
100
AcDbEntity
  8
255
 62
     0
100
AcDbLine
 10
85.180497
 20
-90.011004
 30
0.0
 11
85.870688
 21
-89.320813
 31
0.0
  0
LINE
  5
2FF
330
1E
100
AcDbEntity
  8
255
 62
     0
100
AcDbLine
 10
84.95422299999999
 20
-90.011004
 30
0.0
 11
85.870688
 21
-89.094539
 31
0.0
  0
LINE
  5
300
330
1E
100
AcDbEntity
  8
255
 62
     0
100
AcDbLine
 10
84.83068799999998
 20
-89.908265
 30
0.0
 11
85.870688
 21
-88.86826500000003
 31
0.0
  0
LINE
  5
301
330
1E
100
AcDbEntity
  8
255
 62
     0
100
AcDbLine
 10
84.83068799999998
 20
-89.68199
 30
0.0
 11
85.870688
 21
-88.64199000000002
 31
0.0
  0
LINE
  5
302
330
1E
100
AcDbEntity
  8
255
 62
     0
100
AcDbLine
 10
84.83068799999998
 20
-89.455716
 30
0.0
 11
85.870688
 21
-88.41571599999998
 31
0.0
  0
LINE
  5
303
330
1E
100
AcDbEntity
  8
255
 62
     0
100
AcDbLine
 10
84.83068799999998
 20
-89.22944200000001
 30
0.0
 11
85.870688
 21
-88.189442
 31
0.0
  0
LINE
  5
304
330
1E
100
AcDbEntity
  8
255
 62
     0
100
AcDbLine
 10
84.83068799999998
 20
-89.003168
 30
0.0
 11
85.870688
 21
-87.96316800000004
 31
0.0
  0
LINE
  5
305
330
1E
100
AcDbEntity
  8
255
 62
     0
100
AcDbLine
 10
84.83068799999998
 20
-88.77689399999999
 30
0.0
 11
85.870688
 21
-87.736894
 31
0.0
  0
LINE
  5
306
330
1E
100
AcDbEntity
  8
255
 62
     0
100
AcDbLine
 10
84.83068799999998
 20
-88.55062
 30
0.0
 11
85.84898
 21
-87.53232800000002
 31
0.0
  0
LINE
  5
307
330
1E
100
AcDbEntity
  8
255
 62
     0
100
AcDbLine
 10
84.83068799999998
 20
-88.32434499999996
 30
0.0
 11
85.793318
 21
-87.36171500000002
 31
0.0
  0
LINE
  5
308
330
1E
100
AcDbEntity
  8
255
 62
     0
100
AcDbLine
 10
84.83068799999998
 20
-88.09807099999998
 30
0.0
 11
85.71292300000001
 21
-87.215836
 31
0.0
  0
LINE
  5
309
330
1E
100
AcDbEntity
  8
255
 62
     0
100
AcDbLine
 10
84.83068799999998
 20
-87.87179700000001
 30
0.0
 11
85.61154
 21
-87.09094499999997
 31
0.0
  0
LINE
  5
30A
330
1E
100
AcDbEntity
  8
255
 62
     0
100
AcDbLine
 10
84.82364100000003
 20
-87.65257
 30
0.0
 11
85.49032099999998
 21
-86.985889
 31
0.0
  0
LINE
  5
30B
330
1E
100
AcDbEntity
  8
255
 62
     0
100
AcDbLine
 10
84.759258
 20
-87.490679
 30
0.0
 11
85.348485
 21
-86.90145200000001
 31
0.0
  0
LINE
  5
30C
330
1E
100
AcDbEntity
  8
255
 62
     0
100
AcDbLine
 10
84.648915
 20
-87.37474699999998
 30
0.0
 11
85.182877
 21
-86.84078599999997
 31
0.0
  0
LINE
  5
30D
330
1E
100
AcDbEntity
  8
255
 62
     0
100
AcDbLine
 10
84.494067
 20
-87.303321
 30
0.0
 11
84.98571700000002
 21
-86.81167099999996
 31
0.0
  0
LINE
  5
30E
330
1E
100
AcDbEntity
  8
255
 62
     0
100
AcDbLine
 10
84.28010999999996
 20
-87.291004
 30
0.0
 11
84.76010999999997
 21
-86.811004
 31
0.0
  0
LINE
  5
30F
330
1E
100
AcDbEntity
  8
255
 62
     0
100
AcDbLine
 10
84.053836
 20
-87.291004
 30
0.0
 11
84.533836
 21
-86.811004
 31
0.0
  0
LINE
  5
310
330
1E
100
AcDbEntity
  8
255
 62
     0
100
AcDbLine
 10
83.82756200000001
 20
-87.291004
 30
0.0
 11
84.30756200000002
 21
-86.811004
 31
0.0
  0
LINE
  5
311
330
1E
100
AcDbEntity
  8
255
 62
     0
100
AcDbLine
 10
83.601288
 20
-87.291004
 30
0.0
 11
84.081288
 21
-86.811004
 31
0.0
  0
LINE
  5
312
330
1E
100
AcDbEntity
  8
255
 62
     0
100
AcDbLine
 10
83.37501299999997
 20
-87.291004
 30
0.0
 11
83.85501299999999
 21
-86.811004
 31
0.0
  0
LINE
  5
313
330
1E
100
AcDbEntity
  8
255
 62
     0
100
AcDbLine
 10
83.27068800000002
 20
-87.16905500000001
 30
0.0
 11
83.628739
 21
-86.811004
 31
0.0
  0
LINE
  5
314
330
1E
100
AcDbEntity
  8
255
 62
     0
100
AcDbLine
 10
83.27068800000002
 20
-86.94278100000003
 30
0.0
 11
83.40246500000002
 21
-86.811004
 31
0.0
  0
LINE
  5
315
330
1E
100
AcDbEntity
  8
255
 62
     0
100
AcDbLine
 10
90.611077
 20
-90.011004
 30
0.0
 11
90.67068799999999
 21
-89.95139300000003
 31
0.0
  0
LINE
  5
316
330
1E
100
AcDbEntity
  8
255
 62
     0
100
AcDbLine
 10
90.38480300000001
 20
-90.011004
 30
0.0
 11
90.67068799999999
 21
-89.72511899999998
 31
0.0
  0
LINE
  5
317
330
1E
100
AcDbEntity
  8
255
 62
     0
100
AcDbLine
 10
90.158529
 20
-90.011004
 30
0.0
 11
90.66587699999999
 21
-89.50365600000003
 31
0.0
  0
LINE
  5
318
330
1E
100
AcDbEntity
  8
255
 62
     0
100
AcDbLine
 10
89.932254
 20
-90.011004
 30
0.0
 11
90.632516
 21
-89.310743
 31
0.0
  0
LINE
  5
319
330
1E
100
AcDbEntity
  8
255
 62
     0
100
AcDbLine
 10
89.70598
 20
-90.011004
 30
0.0
 11
90.575164
 21
-89.14182099999996
 31
0.0
  0
LINE
  5
31A
330
1E
100
AcDbEntity
  8
255
 62
     0
100
AcDbLine
 10
89.630688
 20
-89.86002199999999
 30
0.0
 11
90.498711
 21
-88.99199899999997
 31
0.0
  0
LINE
  5
31B
330
1E
100
AcDbEntity
  8
255
 62
     0
100
AcDbLine
 10
89.630688
 20
-89.633748
 30
0.0
 11
90.405654
 21
-88.85878199999998
 31
0.0
  0
LINE
  5
31C
330
1E
100
AcDbEntity
  8
255
 62
     0
100
AcDbLine
 10
89.630688
 20
-89.40747399999997
 30
0.0
 11
90.297172
 21
-88.74098999999999
 31
0.0
  0
LINE
  5
31D
330
1E
100
AcDbEntity
  8
255
 62
     0
100
AcDbLine
 10
89.61760400000001
 20
-89.19428399999999
 30
0.0
 11
90.17352200000001
 21
-88.638366
 31
0.0
  0
LINE
  5
31E
330
1E
100
AcDbEntity
  8
255
 62
     0
100
AcDbLine
 10
89.57522199999997
 20
-89.010391
 30
0.0
 11
90.034114
 21
-88.55149899999998
 31
0.0
  0
LINE
  5
31F
330
1E
100
AcDbEntity
  8
255
 62
     0
100
AcDbLine
 10
89.510921
 20
-88.84841800000002
 30
0.0
 11
89.87733399999996
 21
-88.482005
 31
0.0
  0
LINE
  5
320
330
1E
100
AcDbEntity
  8
255
 62
     0
100
AcDbLine
 10
90.181547
 20
-88.17779200000002
 30
0.0
 11
90.43747600000001
 21
-87.921863
 31
0.0
  0
LINE
  5
321
330
1E
100
AcDbEntity
  8
255
 62
     0
100
AcDbLine
 10
89.428569
 20
-88.70449599999998
 30
0.0
 11
89.699956
 21
-88.433109
 31
0.0
  0
LINE
  5
322
330
1E
100
AcDbEntity
  8
255
 62
     0
100
AcDbLine
 10
89.75662599999997
 20
-88.37643900000001
 30
0.0
 11
90.636123
 21
-87.496942
 31
0.0
  0
LINE
  5
323
330
1E
100
AcDbEntity
  8
255
 62
     0
100
AcDbLine
 10
89.255787
 20
-88.65100400000001
 30
0.0
 11
89.49552999999998
 21
-88.411261
 31
0.0
  0
LINE
  5
324
330
1E
100
AcDbEntity
  8
255
 62
     0
100
AcDbLine
 10
89.496055
 20
-88.41073599999999
 30
0.0
 11
90.67041999999998
 21
-87.23637099999995
 31
0.0
  0
LINE
  5
325
330
1E
100
AcDbEntity
  8
255
 62
     0
100
AcDbLine
 10
87.669513
 20
-90.011004
 30
0.0
 11
87.710688
 21
-89.969829
 31
0.0
  0
LINE
  5
326
330
1E
100
AcDbEntity
  8
255
 62
     0
100
AcDbLine
 10
89.02951299999998
 20
-88.65100400000001
 30
0.0
 11
90.67068799999999
 21
-87.00982900000004
 31
0.0
  0
LINE
  5
327
330
1E
100
AcDbEntity
  8
255
 62
     0
100
AcDbLine
 10
87.44323900000003
 20
-90.011004
 30
0.0
 11
87.710688
 21
-89.74355499999999
 31
0.0
  0
LINE
  5
328
330
1E
100
AcDbEntity
  8
255
 62
     0
100
AcDbLine
 10
88.803239
 20
-88.65100400000001
 30
0.0
 11
89.283239
 21
-88.17100400000002
 31
0.0
  0
LINE
  5
329
330
1E
100
AcDbEntity
  8
255
 62
     0
100
AcDbLine
 10
89.535979
 20
-87.918263
 30
0.0
 11
90.64323899999999
 21
-86.811004
 31
0.0
  0
LINE
  5
32A
330
1E
100
AcDbEntity
  8
255
 62
     0
100
AcDbLine
 10
87.216964
 20
-90.011004
 30
0.0
 11
87.710688
 21
-89.51728000000001
 31
0.0
  0
LINE
  5
32B
330
1E
100
AcDbEntity
  8
255
 62
     0
100
AcDbLine
 10
88.576964
 20
-88.65100400000001
 30
0.0
 11
89.05696400000001
 21
-88.17100400000002
 31
0.0
  0
LINE
  5
32C
330
1E
100
AcDbEntity
  8
255
 62
     0
100
AcDbLine
 10
89.620435
 20
-87.60753299999995
 30
0.0
 11
90.41696399999999
 21
-86.811004
 31
0.0
  0
LINE
  5
32D
330
1E
100
AcDbEntity
  8
255
 62
     0
100
AcDbLine
 10
86.99068999999999
 20
-90.011004
 30
0.0
 11
87.710688
 21
-89.29100600000003
 31
0.0
  0
LINE
  5
32E
330
1E
100
AcDbEntity
  8
255
 62
     0
100
AcDbLine
 10
88.35069
 20
-88.65100400000001
 30
0.0
 11
88.83069
 21
-88.17100400000002
 31
0.0
  0
LINE
  5
32F
330
1E
100
AcDbEntity
  8
255
 62
     0
100
AcDbLine
 10
89.630688
 20
-87.37100600000003
 30
0.0
 11
90.19069
 21
-86.811004
 31
0.0
  0
LINE
  5
330
330
1E
100
AcDbEntity
  8
255
 62
     0
100
AcDbLine
 10
86.764416
 20
-90.011004
 30
0.0
 11
87.710688
 21
-89.06473199999998
 31
0.0
  0
LINE
  5
331
330
1E
100
AcDbEntity
  8
255
 62
     0
100
AcDbLine
 10
88.12441599999997
 20
-88.65100400000001
 30
0.0
 11
88.60441599999999
 21
-88.17100400000002
 31
0.0
  0
LINE
  5
332
330
1E
100
AcDbEntity
  8
255
 62
     0
100
AcDbLine
 10
89.630688
 20
-87.14473199999998
 30
0.0
 11
89.964416
 21
-86.811004
 31
0.0
  0
LINE
  5
333
330
1E
100
AcDbEntity
  8
255
 62
     0
100
AcDbLine
 10
86.670688
 20
-89.878458
 30
0.0
 11
87.710688
 21
-88.83845800000001
 31
0.0
  0
LINE
  5
334
330
1E
100
AcDbEntity
  8
255
 62
     0
100
AcDbLine
 10
87.898142
 20
-88.65100400000001
 30
0.0
 11
88.37814200000002
 21
-88.17100400000002
 31
0.0
  0
LINE
  5
335
330
1E
100
AcDbEntity
  8
255
 62
     0
100
AcDbLine
 10
89.630688
 20
-86.91845800000001
 30
0.0
 11
89.73814200000004
 21
-86.811004
 31
0.0
  0
LINE
  5
336
330
1E
100
AcDbEntity
  8
255
 62
     0
100
AcDbLine
 10
86.670688
 20
-89.65218399999995
 30
0.0
 11
88.15186800000002
 21
-88.17100400000002
 31
0.0
  0
LINE
  5
337
330
1E
100
AcDbEntity
  8
255
 62
     0
100
AcDbLine
 10
86.670688
 20
-89.42591
 30
0.0
 11
87.925593
 21
-88.17100400000002
 31
0.0
  0
LINE
  5
338
330
1E
100
AcDbEntity
  8
255
 62
     0
100
AcDbLine
 10
86.670688
 20
-89.19963499999999
 30
0.0
 11
87.710688
 21
-88.159635
 31
0.0
  0
LINE
  5
339
330
1E
100
AcDbEntity
  8
255
 62
     0
100
AcDbLine
 10
86.670688
 20
-88.973361
 30
0.0
 11
87.710688
 21
-87.93336100000002
 31
0.0
  0
LINE
  5
33A
330
1E
100
AcDbEntity
  8
255
 62
     0
100
AcDbLine
 10
86.670688
 20
-88.74708699999997
 30
0.0
 11
87.710688
 21
-87.707087
 31
0.0
  0
LINE
  5
33B
330
1E
100
AcDbEntity
  8
255
 62
     0
100
AcDbLine
 10
86.670688
 20
-88.520813
 30
0.0
 11
87.710688
 21
-87.480813
 31
0.0
  0
LINE
  5
33C
330
1E
100
AcDbEntity
  8
255
 62
     0
100
AcDbLine
 10
86.670688
 20
-88.294539
 30
0.0
 11
87.710688
 21
-87.25453900000003
 31
0.0
  0
LINE
  5
33D
330
1E
100
AcDbEntity
  8
255
 62
     0
100
AcDbLine
 10
86.670688
 20
-88.06826499999997
 30
0.0
 11
87.710688
 21
-87.028265
 31
0.0
  0
LINE
  5
33E
330
1E
100
AcDbEntity
  8
255
 62
     0
100
AcDbLine
 10
86.670688
 20
-87.84198999999999
 30
0.0
 11
87.701674
 21
-86.811004
 31
0.0
  0
LINE
  5
33F
330
1E
100
AcDbEntity
  8
255
 62
     0
100
AcDbLine
 10
86.670688
 20
-87.61571600000001
 30
0.0
 11
87.47539999999998
 21
-86.811004
 31
0.0
  0
LINE
  5
340
330
1E
100
AcDbEntity
  8
255
 62
     0
100
AcDbLine
 10
86.670688
 20
-87.389442
 30
0.0
 11
87.24912600000001
 21
-86.811004
 31
0.0
  0
LINE
  5
341
330
1E
100
AcDbEntity
  8
255
 62
     0
100
AcDbLine
 10
86.670688
 20
-87.16316799999999
 30
0.0
 11
87.022852
 21
-86.811004
 31
0.0
  0
LINE
  5
342
330
1E
100
AcDbEntity
  8
255
 62
     0
100
AcDbLine
 10
86.670688
 20
-86.936894
 30
0.0
 11
86.79657799999999
 21
-86.811004
 31
0.0
  0
LINE
  5
343
330
1E
100
AcDbEntity
  8
255
  6
CENTER
 62
     0
100
AcDbLine
 10
-11.021591
 20
-66.0
 30
0.0
 11
-27.54652399999999
 21
-66.0
 31
0.0
  0
LINE
  5
344
330
1E
100
AcDbEntity
  8
255
  6
CENTER
 62
     0
100
AcDbLine
 10
-23.92167699999999
 20
-61.473799
 30
0.0
 11
-23.92167699999999
 21
-70.516901
 31
0.0
  0
LINE
  5
345
330
1E
100
AcDbEntity
  8
255
 62
     0
100
AcDbLine
 10
-19.65582999999998
 20
-64.0
 30
0.0
 11
-19.65582999999998
 21
-68.0
 31
0.0
  0
LINE
  5
346
330
1E
100
AcDbEntity
  8
255
 62
     0
100
AcDbLine
 10
-12.19612899999999
 20
-63.0
 30
0.0
 11
-12.19612899999999
 21
-69.0
 31
0.0
  0
CIRCLE
  5
347
330
1E
100
AcDbEntity
  8
255
 62
     0
100
AcDbCircle
 10
-23.92167699999999
 20
-66.0
 30
0.0
 40
2.0
  0
CIRCLE
  5
348
330
1E
100
AcDbEntity
  8
255
 62
     0
100
AcDbCircle
 10
-23.92167699999999
 20
-66.0
 30
0.0
 40
3.0
  0
LINE
  5
349
330
1E
100
AcDbEntity
  8
255
 62
     0
100
AcDbLine
 10
-12.19612899999999
 20
-63.0
 30
0.0
 11
-19.65582999999998
 21
-64.0
 31
0.0
  0
LINE
  5
34A
330
1E
100
AcDbEntity
  8
255
 62
     0
100
AcDbLine
 10
-19.65582999999998
 20
-68.0
 30
0.0
 11
-12.19612899999999
 21
-69.0
 31
0.0
  0
LINE
  5
34B
330
1E
100
AcDbEntity
  8
255
 62
     0
100
AcDbLine
 10
-131.0
 20
-54.5
 30
0.0
 11
-136.0
 21
-61.5
 31
0.0
  0
LINE
  5
34C
330
1E
100
AcDbEntity
  8
255
 62
     0
100
AcDbLine
 10
-131.0
 20
-54.5
 30
0.0
 11
-126.0
 21
-61.5
 31
0.0
  0
LINE
  5
34D
330
1E
100
AcDbEntity
  8
255
 62
     0
100
AcDbLine
 10
-131.0
 20
-61.5
 30
0.0
 11
-136.0
 21
-68.5
 31
0.0
  0
LINE
  5
34E
330
1E
100
AcDbEntity
  8
255
 62
     0
100
AcDbLine
 10
-131.0
 20
-61.5
 30
0.0
 11
-126.0
 21
-68.5
 31
0.0
  0
LINE
  5
34F
330
1E
100
AcDbEntity
  8
255
 62
     0
100
AcDbLine
 10
-136.0
 20
-75.5
 30
0.0
 11
-131.0
 21
-68.5
 31
0.0
  0
LINE
  5
350
330
1E
100
AcDbEntity
  8
255
 62
     0
100
AcDbLine
 10
-131.0
 20
-68.5
 30
0.0
 11
-126.0
 21
-75.5
 31
0.0
  0
LINE
  5
351
330
1E
100
AcDbEntity
  8
255
 62
     0
100
AcDbLine
 10
-136.0
 20
-54.5
 30
0.0
 11
-136.0
 21
-92.5
 31
0.0
  0
TEXT
  5
352
330
1E
100
AcDbEntity
  8
255
 62
     0
100
AcDbText
 10
-23.90284199999999
 20
-90.23537299999999
 30
0.0
 40
6.0
  1
mm
 41
0.833333
100
AcDbText
  0
LINE
  5
353
330
1E
100
AcDbEntity
  8
255
 62
     0
100
AcDbLine
 10
-10.0
 20
-60.5
 30
0.0
 11
-10.0
 21
-92.5
 31
0.0
  0
LINE
  5
354
330
1E
100
AcDbEntity
  8
255
 62
     0
100
AcDbLine
 10
27.0
 20
-60.5
 30
0.0
 11
27.0
 21
-71.5
 31
0.0
  0
LINE
  5
355
330
1E
100
AcDbEntity
  8
255
 62
     0
100
AcDbLine
 10
33.0
 20
-60.5
 30
0.0
 11
33.0
 21
-71.5
 31
0.0
  0
TEXT
  5
356
330
1E
100
AcDbEntity
  8
255
 62
     0
100
AcDbText
 10
30.0
 20
-62.0
 30
0.0
 40
4.0
  1
仕上
 50
0.0000010000000028
 41
0.833333
 51
1.570796
  7
TATEGAKI
100
AcDbText
  0
LINE
  5
357
330
1E
100
AcDbEntity
  8
255
 62
     0
100
AcDbLine
 10
136.0
 20
92.5
 30
0.0
 11
136.0
 21
-92.5
 31
0.0
  0
LINE
  5
358
330
1E
100
AcDbEntity
  8
255
 62
     0
100
AcDbLine
 10
-136.0
 20
-92.5
 30
0.0
 11
-136.0
 21
92.5
 31
0.0
  0
LINE
  5
359
330
1E
100
AcDbEntity
  8
255
 62
     0
100
AcDbLine
 10
136.0
 20
-92.5
 30
0.0
 11
-136.0
 21
-92.5
 31
0.0
  0
LINE
  5
35A
330
1E
100
AcDbEntity
  8
255
 62
     0
100
AcDbLine
 10
-136.0
 20
-92.5
 30
0.0
 11
136.0
 21
-92.5
 31
0.0
  0
LINE
  5
35B
330
1E
100
AcDbEntity
  8
255
 62
     0
100
AcDbLine
 10
136.0
 20
-92.5
 30
0.0
 11
136.0
 21
-54.5
 31
0.0
  0
LINE
  5
35C
330
1E
100
AcDbEntity
  8
255
 62
     0
100
AcDbLine
 10
-136.0
 20
-54.5
 30
0.0
 11
-136.0
 21
-92.5
 31
0.0
  0
LINE
  5
375
330
1E
100
AcDbEntity
  8
002
 62
     0
100
AcDbLine
 10
-54.02525
 20
-14.592495
 30
0.0
 11
-54.02525
 21
-51.177587
 31
0.0
  0
LINE
  5
376
330
1E
100
AcDbEntity
  8
002
 62
     0
100
AcDbLine
 10
37.97475
 20
-10.89231099999999
 30
0.0
 11
37.97475
 21
-51.177587
 31
0.0
  0
LINE
  5
377
330
1E
100
AcDbEntity
  8
002
 62
     0
100
AcDbLine
 10
-54.02525
 20
-50.177587
 30
0.0
 11
37.97475
 21
-50.177587
 31
0.0
  0
INSERT
  5
378
330
1E
100
AcDbEntity
  8
002
 62
     0
100
AcDbBlockReference
  2
ARROW
 10
-54.02525
 20
-50.177587
 30
0.0
  0
INSERT
  5
379
330
1E
100
AcDbEntity
  8
002
 62
     0
100
AcDbBlockReference
  2
ARROW
 10
37.97475
 20
-50.177587
 30
0.0
 50
180.0
  0
TEXT
  5
37A
330
1E
100
AcDbEntity
  8
002
 62
     0
100
AcDbText
 10
-10.77525
 20
-49.177587
 30
0.0
 40
3.2
  1
92
 41
0.859375
100
AcDbText
  0
LINE
  5
37B
330
1E
100
AcDbEntity
  8
002
 62
     0
100
AcDbLine
 10
-49.02525
 20
-11.978958
 30
0.0
 11
-49.02525
 21
-43.967902
 31
0.0
  0
LINE
  5
37C
330
1E
100
AcDbEntity
  8
002
 62
     0
100
AcDbLine
 10
32.97475
 20
-11.978958
 30
0.0
 11
32.97475
 21
-43.967902
 31
0.0
  0
LINE
  5
37D
330
1E
100
AcDbEntity
  8
002
 62
     0
100
AcDbLine
 10
-49.02525
 20
-42.967902
 30
0.0
 11
32.97475
 21
-42.967902
 31
0.0
  0
INSERT
  5
37E
330
1E
100
AcDbEntity
  8
002
 62
     0
100
AcDbBlockReference
  2
ARROW
 10
-49.02525
 20
-42.967902
 30
0.0
  0
INSERT
  5
37F
330
1E
100
AcDbEntity
  8
002
 62
     0
100
AcDbBlockReference
  2
ARROW
 10
32.97475
 20
-42.967902
 30
0.0
 50
180.0
  0
TEXT
  5
380
330
1E
100
AcDbEntity
  8
002
 62
     0
100
AcDbText
 10
-10.77525
 20
-41.967902
 30
0.0
 40
3.2
  1
82
 41
0.859375
100
AcDbText
  0
LINE
  5
381
330
1E
100
AcDbEntity
  8
002
 62
     0
100
AcDbLine
 10
-71.02524999999999
 20
53.021042
 30
0.0
 11
-71.02524999999999
 21
66.220252
 31
0.0
  0
LINE
  5
382
330
1E
100
AcDbEntity
  8
002
 62
     0
100
AcDbLine
 10
54.97475
 20
49.671042
 30
0.0
 11
54.97475
 21
66.220252
 31
0.0
  0
LINE
  5
383
330
1E
100
AcDbEntity
  8
002
 62
     0
100
AcDbLine
 10
-71.02524999999999
 20
65.220252
 30
0.0
 11
54.97475
 21
65.220252
 31
0.0
  0
INSERT
  5
384
330
1E
100
AcDbEntity
  8
002
 62
     0
100
AcDbBlockReference
  2
ARROW
 10
-71.02524999999999
 20
65.220252
 30
0.0
  0
INSERT
  5
385
330
1E
100
AcDbEntity
  8
002
 62
     0
100
AcDbBlockReference
  2
ARROW
 10
54.97475
 20
65.220252
 30
0.0
 50
180.0
  0
TEXT
  5
386
330
1E
100
AcDbEntity
  8
002
 62
     0
100
AcDbText
 10
-12.484285
 20
66.220252
 30
0.0
 40
3.2
  1
126
 41
0.9667969999999998
100
AcDbText
  0
LINE
  5
387
330
1E
100
AcDbEntity
  8
001
 62
     0
100
AcDbLine
 10
-78.02525
 20
50.021042
 30
0.0
 11
-78.02525
 21
78.29068599999998
 31
0.0
  0
LINE
  5
388
330
1E
100
AcDbEntity
  8
001
 62
     0
100
AcDbLine
 10
61.97475
 20
50.021042
 30
0.0
 11
61.97475
 21
78.29068599999998
 31
0.0
  0
LINE
  5
389
330
1E
100
AcDbEntity
  8
001
 62
     0
100
AcDbLine
 10
-78.02525
 20
77.29068599999997
 30
0.0
 11
61.97475
 21
77.29068599999997
 31
0.0
  0
INSERT
  5
38A
330
1E
100
AcDbEntity
  8
001
 62
     0
100
AcDbBlockReference
  2
ARROW
 10
-78.02525
 20
77.29068599999997
 30
0.0
  0
INSERT
  5
38B
330
1E
100
AcDbEntity
  8
001
 62
     0
100
AcDbBlockReference
  2
ARROW
 10
61.97475
 20
77.29068599999997
 30
0.0
 50
180.0
  0
TEXT
  5
38C
330
1E
100
AcDbEntity
  8
001
 62
     0
100
AcDbText
 10
-12.15025
 20
78.29068599999998
 30
0.0
 40
3.2
  1
140
 41
1.03125
100
AcDbText
  0
LINE
  5
38D
330
1E
100
AcDbEntity
  8
002
 62
     0
100
AcDbLine
 10
-50.02525
 20
-15.97895799999998
 30
0.0
 11
-102.4182109999999
 21
-15.97895799999998
 31
0.0
  0
LINE
  5
38E
330
1E
100
AcDbEntity
  8
002
 62
     0
100
AcDbLine
 10
-50.02525
 20
44.021042
 30
0.0
 11
-102.4182109999999
 21
44.021042
 31
0.0
  0
LINE
  5
38F
330
1E
100
AcDbEntity
  8
002
 62
     0
100
AcDbLine
 10
-101.4182109999999
 20
-15.97895799999998
 30
0.0
 11
-101.4182109999999
 21
44.021042
 31
0.0
  0
INSERT
  5
390
330
1E
100
AcDbEntity
  8
002
 62
     0
100
AcDbBlockReference
  2
ARROW
 10
-101.4182109999999
 20
-15.97895799999998
 30
0.0
 50
90.0
  0
INSERT
  5
391
330
1E
100
AcDbEntity
  8
002
 62
     0
100
AcDbBlockReference
  2
ARROW
 10
-101.4182109999999
 20
44.021042
 30
0.0
 50
270.0
  0
TEXT
  5
392
330
1E
100
AcDbEntity
  8
002
 62
     0
100
AcDbText
 10
-102.4182109999999
 20
11.271042
 30
0.0
 40
3.2
  1
60
 50
90.00000300000001
 41
0.9375
100
AcDbText
  0
LINE
  5
393
330
1E
100
AcDbEntity
  8
002
 62
     0
100
AcDbLine
 10
48.488997
 20
1.521042
 30
0.0
 11
81.16712099999999
 21
1.521042
 31
0.0
  0
LINE
  5
394
330
1E
100
AcDbEntity
  8
002
 62
     0
100
AcDbLine
 10
47.50275999999998
 20
26.521042
 30
0.0
 11
81.16712099999999
 21
26.521042
 31
0.0
  0
LINE
  5
395
330
1E
100
AcDbEntity
  8
002
 62
     0
100
AcDbLine
 10
80.16712099999997
 20
1.521042
 30
0.0
 11
80.16712099999997
 21
26.521042
 31
0.0
  0
INSERT
  5
396
330
1E
100
AcDbEntity
  8
002
 62
     0
100
AcDbBlockReference
  2
ARROW
 10
80.16712099999997
 20
1.521042
 30
0.0
 50
90.0
  0
INSERT
  5
397
330
1E
100
AcDbEntity
  8
002
 62
     0
100
AcDbBlockReference
  2
ARROW
 10
80.16712099999997
 20
26.521042
 30
0.0
 50
270.0
  0
TEXT
  5
398
330
1E
100
AcDbEntity
  8
002
 62
     0
100
AcDbText
 10
79.16712099999998
 20
11.271042
 30
0.0
 40
3.2
  1
25
 50
90.00000300000001
 41
0.859375
100
AcDbText
  0
LINE
  5
399
330
1E
100
AcDbEntity
  8
001
 62
     0
100
AcDbLine
 10
57.97475
 20
-25.97895799999999
 30
0.0
 11
110.7000449999999
 21
-25.97895799999999
 31
0.0
  0
LINE
  5
39A
330
1E
100
AcDbEntity
  8
001
 62
     0
100
AcDbLine
 10
57.97475
 20
54.021042
 30
0.0
 11
110.7000449999999
 21
54.021042
 31
0.0
  0
LINE
  5
39B
330
1E
100
AcDbEntity
  8
001
 62
     0
100
AcDbLine
 10
109.7000449999999
 20
-25.97895799999999
 30
0.0
 11
109.7000449999999
 21
54.021042
 31
0.0
  0
INSERT
  5
39C
330
1E
100
AcDbEntity
  8
001
 62
     0
100
AcDbBlockReference
  2
ARROW
 10
109.7000449999999
 20
-25.97895799999999
 30
0.0
 50
90.0
  0
INSERT
  5
39D
330
1E
100
AcDbEntity
  8
001
 62
     0
100
AcDbBlockReference
  2
ARROW
 10
109.7000449999999
 20
54.021042
 30
0.0
 50
270.0
  0
TEXT
  5
39E
330
1E
100
AcDbEntity
  8
001
 62
     0
100
AcDbText
 10
108.7000449999997
 20
11.271042
 30
0.0
 40
3.2
  1
80
 50
90.00000300000001
 41
0.9375
100
AcDbText
  0
LINE
  5
39F
330
1E
100
AcDbEntity
  8
002
 62
     0
100
AcDbLine
 10
29.584528
 20
-12.200049
 30
0.0
 11
31.60177299999999
 21
-14.42057099999999
 31
0.0
  0
INSERT
  5
3A0
330
1E
100
AcDbEntity
  8
002
 62
     0
100
AcDbBlockReference
  2
ARROW
 10
31.60177299999999
 20
-14.42057099999999
 30
0.0
 50
312.253744
  0
TEXT
  5
3A1
330
1E
100
AcDbEntity
  8
002
 62
     0
100
AcDbText
 10
34.359192
 20
-15.96867999999999
 30
0.0
 40
3.2
  1
4-R5
 50
312.253764
 41
0.859375
100
AcDbText
  0
LINE
  5
3A2
330
1E
100
AcDbEntity
  8
002
 62
     0
100
AcDbLine
 10
31.60177299999999
 20
-14.42057099999999
 30
0.0
 11
41.01558599999999
 21
-24.78301
 31
0.0
  0
LINE
  5
3A3
330
1E
100
AcDbEntity
  8
001
 62
     0
100
AcDbLine
 10
57.97475
 20
-25.97895799999999
 30
0.0
 11
87.29658699999998
 21
-25.97895799999999
 31
0.0
  0
LINE
  5
3A4
330
1E
100
AcDbEntity
  8
001
 62
     0
100
AcDbLine
 10
67.02428600000001
 20
-18.97895799999998
 30
0.0
 11
87.29658699999998
 21
-18.97895799999998
 31
0.0
  0
LINE
  5
3A5
330
1E
100
AcDbEntity
  8
001
 62
     0
100
AcDbLine
 10
86.296587
 20
-25.97895799999999
 30
0.0
 11
86.296587
 21
-18.97895799999998
 31
0.0
  0
INSERT
  5
3A6
330
1E
100
AcDbEntity
  8
001
 62
     0
100
AcDbBlockReference
  2
ARROW
 10
86.296587
 20
-25.97895799999999
 30
0.0
 50
270.0
  0
INSERT
  5
3A7
330
1E
100
AcDbEntity
  8
001
 62
     0
100
AcDbBlockReference
  2
ARROW
 10
86.296587
 20
-18.97895799999998
 30
0.0
 50
90.0
  0
TEXT
  5
3A8
330
1E
100
AcDbEntity
  8
001
 62
     0
100
AcDbText
 10
85.296587
 20
-15.97895799999998
 30
0.0
 40
3.2
  1
7
 50
90.00000300000001
 41
0.859375
100
AcDbText
  0
LINE
  5
3A9
330
1E
100
AcDbEntity
  8
001
 62
     0
100
AcDbLine
 10
86.296587
 20
-25.97895799999999
 30
0.0
 11
86.296587
 21
-28.978958
 31
0.0
  0
LINE
  5
3AA
330
1E
100
AcDbEntity
  8
001
 62
     0
100
AcDbLine
 10
86.296587
 20
-18.97895799999998
 30
0.0
 11
86.296587
 21
-13.22895799999999
 31
0.0
  0
LINE
  5
3AB
330
1E
100
AcDbEntity
  8
001
 62
     0
100
AcDbLine
 10
54.97475
 20
-21.97895799999999
 30
0.0
 11
54.97475
 21
-45.808694
 31
0.0
  0
LINE
  5
3AC
330
1E
100
AcDbEntity
  8
001
 62
     0
100
AcDbLine
 10
61.97475
 20
-21.97895799999999
 30
0.0
 11
61.97475
 21
-45.808694
 31
0.0
  0
LINE
  5
3AD
330
1E
100
AcDbEntity
  8
001
 62
     0
100
AcDbLine
 10
54.97475
 20
-44.808694
 30
0.0
 11
61.97475
 21
-44.808694
 31
0.0
  0
INSERT
  5
3AE
330
1E
100
AcDbEntity
  8
001
 62
     0
100
AcDbBlockReference
  2
ARROW
 10
54.97475
 20
-44.808694
 30
0.0
 50
180.0
  0
INSERT
  5
3AF
330
1E
100
AcDbEntity
  8
001
 62
     0
100
AcDbBlockReference
  2
ARROW
 10
61.97475
 20
-44.808694
 30
0.0
  0
TEXT
  5
3B0
330
1E
100
AcDbEntity
  8
001
 62
     0
100
AcDbText
 10
49.22475
 20
-43.808694
 30
0.0
 40
3.2
  1
7
 41
0.859375
100
AcDbText
  0
LINE
  5
3B1
330
1E
100
AcDbEntity
  8
001
 62
     0
100
AcDbLine
 10
54.97475
 20
-44.808694
 30
0.0
 11
49.22475
 21
-44.808694
 31
0.0
  0
LINE
  5
3B2
330
1E
100
AcDbEntity
  8
001
 62
     0
100
AcDbLine
 10
61.97475
 20
-44.808694
 30
0.0
 11
64.97475
 21
-44.808694
 31
0.0
  0
LINE
  5
3B3
330
1E
100
AcDbEntity
  8
002
 62
     0
100
AcDbLine
 10
58.08275899999999
 20
50.863964
 30
0.0
 11
60.658726
 21
52.401622
 31
0.0
  0
INSERT
  5
3B4
330
1E
100
AcDbEntity
  8
002
 62
     0
100
AcDbBlockReference
  2
ARROW
 10
60.658726
 20
52.401622
 30
0.0
 50
30.834018
  0
TEXT
  5
3B5
330
1E
100
AcDbEntity
  8
002
 62
     0
100
AcDbText
 10
71.61067
 20
60.10371800000001
 30
0.0
 40
3.2
  1
4-R5
 50
30.834018
 41
0.859375
100
AcDbText
  0
LINE
  5
3B6
330
1E
100
AcDbEntity
  8
002
 62
     0
100
AcDbLine
 10
60.658726
 20
52.401622
 30
0.0
 11
81.568436
 21
64.883143
 31
0.0
  0
LINE
  5
3B7
330
1E
100
AcDbEntity
  8
002
 62
     0
100
AcDbLine
 10
40.837026
 20
28.893064
 30
0.0
 11
39.292334
 21
27.51425499999999
 31
0.0
  0
LINE
  5
3B8
330
1E
100
AcDbEntity
  8
002
 62
     0
100
AcDbLine
 10
39.292334
 20
27.51425499999999
 30
0.0
 11
41.319481
 21
27.935993
 31
0.0
  0
ENDSEC
  0
SECTION
  2
OBJECTS
  0
DICTIONARY
  5
C
330
0
100
AcDbDictionary
281
     1
  3
ACAD_GROUP
350
D
  3
ACAD_LAYOUT
350
19
  3
ACAD_MLINESTYLE
350
16
  3
ACAD_PLOTSETTINGS
350
18
  3
ACAD_PLOTSTYLENAME
350
E
  3
AcDbVariableDictionary
350
35E
  0
DICTIONARY
  5
D
102
{ACAD_REACTORS
330
C
102
}
330
C
100
AcDbDictionary
281
     1
  0
DICTIONARY
  5
19
102
{ACAD_REACTORS
330
C
102
}
330
C
100
AcDbDictionary
281
     1
  3
Model
350
21
  3
ﾚｲｱｳﾄ1
350
1D
  0
DICTIONARY
  5
16
102
{ACAD_REACTORS
330
C
102
}
330
C
100
AcDbDictionary
281
     1
  3
Standard
350
17
  0
DICTIONARY
  5
18
102
{ACAD_REACTORS
330
C
102
}
330
C
100
AcDbDictionary
281
     1
  0
ACDBDICTIONARYWDFLT
  5
E
102
{ACAD_REACTORS
330
C
102
}
330
C
100
AcDbDictionary
281
     1
  3
Normal
350
F
100
AcDbDictionaryWithDefault
340
F
  0
DICTIONARY
  5
35E
102
{ACAD_REACTORS
330
C
102
}
330
C
100
AcDbDictionary
281
     1
  3
DIMASSOC
350
35F
  0
LAYOUT
  5
21
102
{ACAD_REACTORS
330
19
102
}
330
19
100
AcDbPlotSettings
  1

  2
RICOH IPSiO NX860e RPDL
  4
A4
  6

 40
5.873749732971191
 41
4.815398216247558
 42
7.56707763671875
 43
5.873748779296875
 44
209.9733276367186
 45
296.9683227539062
 46
0.0
 47
0.0
 48
-136.0
 49
-92.5
140
136.0
141
100.5
142
1.0
143
24.94345715512385
 70
 11952
 72
     0
 73
     1
 74
     4
  7

 75
     0
147
0.0400906736296008
148
3454.399999999999
149
2349.5
100
AcDbLayout
  1
Model
 70
     1
 71
     0
 10
0.0
 20
0.0
 11
12.0
 21
9.0
 12
0.0
 22
0.0
 32
0.0
 14
0.0
 24
0.0
 34
0.0
 15
0.0
 25
0.0
 35
0.0
146
0.0
 13
0.0
 23
0.0
 33
0.0
 16
1.0
 26
0.0
 36
0.0
 17
0.0
 27
1.0
 37
0.0
 76
     0
330
1E
  0
LAYOUT
  5
1D
102
{ACAD_REACTORS
330
19
102
}
330
19
100
AcDbPlotSettings
  1

  2
RICOH IPSiO NX860e RPDL
  4

  6

 40
0.0
 41
0.0
 42
0.0
 43
0.0
 44
0.0
 45
0.0
 46
0.0
 47
0.0
 48
0.0
 49
0.0
140
0.0
141
0.0
142
1.0
143
1.0
 70
   688
 72
     0
 73
     0
 74
     5
  7

 75
    16
147
1.0
148
0.0
149
0.0
100
AcDbLayout
  1
ﾚｲｱｳﾄ1
 70
     1
 71
     1
 10
0.0
 20
0.0
 11
12.0
 21
9.0
 12
0.0
 22
0.0
 32
0.0
 14
1.000000000000000E+20
 24
1.000000000000000E+20
 34
1.000000000000000E+20
 15
-1.000000000000000E+20
 25
-1.000000000000000E+20
 35
-1.000000000000000E+20
146
0.0
 13
0.0
 23
0.0
 33
0.0
 16
1.0
 26
0.0
 36
0.0
 17
0.0
 27
1.0
 37
0.0
 76
     0
330
1A
  0
MLINESTYLE
  5
17
102
{ACAD_REACTORS
330
16
102
}
330
16
100
AcDbMlineStyle
  2
STANDARD
 70
     0
  3

 62
   256
 51
90.0
 52
90.0
 71
     2
 49
0.5
 62
   256
  6
BYLAYER
 49
-0.5
 62
   256
  6
BYLAYER
  0
ACDBPLACEHOLDER
  5
F
102
{ACAD_REACTORS
330
E
102
}
330
E
  0
DICTIONARYVAR
  5
35F
102
{ACAD_REACTORS
330
35E
102
}
330
35E
100
DictionaryVariables
280
     0
  1
1
  0
ENDSEC
  0
EOF
