  0
SECTION
  2
HEADER
  9
$ACADVER
  1
AC1015
  9
$ACADMAINTVER
 70
    13
  9
$DWGCODEPAGE
  3
ANSI_932
  9
$INSBASE
 10
0.0
 20
0.0
 30
0.0
  9
$EXTMIN
 10
-197.5
 20
-136.0
 30
0.0
  9
$EXTMAX
 10
197.5
 20
136.0
 30
0.0
  9
$LIMMIN
 10
-197.5
 20
-136.0
  9
$LIMMAX
 10
197.5
 20
136.0
  9
$ORTHOMODE
 70
     0
  9
$REGENMODE
 70
     1
  9
$FILLMODE
 70
     1
  9
$QTEXTMODE
 70
     0
  9
$MIRRTEXT
 70
     1
  9
$LTSCALE
 40
6.583333
  9
$ATTMODE
 70
     1
  9
$TEXTSIZE
 40
0.2
  9
$TRACEWID
 40
0.05
  9
$TEXTSTYLE
  7
STANDARD
  9
$CLAYER
  8
0
  9
$CELTYPE
  6
CONTINUOUS
  9
$CECOLOR
 62
   256
  9
$CELTSCALE
 40
1.0
  9
$DISPSILH
 70
     0
  9
$DIMSCALE
 40
1.0
  9
$DIMASZ
 40
0.18
  9
$DIMEXO
 40
0.0625
  9
$DIMDLI
 40
0.38
  9
$DIMRND
 40
0.0
  9
$DIMDLE
 40
0.0
  9
$DIMEXE
 40
0.18
  9
$DIMTP
 40
0.0
  9
$DIMTM
 40
0.0
  9
$DIMTXT
 40
0.18
  9
$DIMCEN
 40
0.09
  9
$DIMTSZ
 40
0.0
  9
$DIMTOL
 70
     0
  9
$DIMLIM
 70
     0
  9
$DIMTIH
 70
     1
  9
$DIMTOH
 70
     1
  9
$DIMSE1
 70
     0
  9
$DIMSE2
 70
     0
  9
$DIMTAD
 70
     0
  9
$DIMZIN
 70
     0
  9
$DIMBLK
  1

  9
$DIMASO
 70
     1
  9
$DIMSHO
 70
     1
  9
$DIMPOST
  1

  9
$DIMAPOST
  1

  9
$DIMALT
 70
     0
  9
$DIMALTD
 70
     2
  9
$DIMALTF
 40
25.4
  9
$DIMLFAC
 40
1.0
  9
$DIMTOFL
 70
     0
  9
$DIMTVP
 40
0.0
  9
$DIMTIX
 70
     0
  9
$DIMSOXD
 70
     0
  9
$DIMSAH
 70
     0
  9
$DIMBLK1
  1

  9
$DIMBLK2
  1

  9
$DIMSTYLE
  2
Standard
  9
$DIMCLRD
 70
     0
  9
$DIMCLRE
 70
     0
  9
$DIMCLRT
 70
     0
  9
$DIMTFAC
 40
1.0
  9
$DIMGAP
 40
0.09
  9
$DIMJUST
 70
     0
  9
$DIMSD1
 70
     0
  9
$DIMSD2
 70
     0
  9
$DIMTOLJ
 70
     1
  9
$DIMTZIN
 70
     0
  9
$DIMALTZ
 70
     0
  9
$DIMALTTZ
 70
     0
  9
$DIMUPT
 70
     0
  9
$DIMDEC
 70
     4
  9
$DIMTDEC
 70
     4
  9
$DIMALTU
 70
     2
  9
$DIMALTTD
 70
     2
  9
$DIMTXSTY
  7
STANDARD
  9
$DIMAUNIT
 70
     0
  9
$DIMADEC
 70
     0
  9
$DIMALTRND
 40
0.0
  9
$DIMAZIN
 70
     0
  9
$DIMDSEP
 70
    46
  9
$DIMATFIT
 70
     3
  9
$DIMFRAC
 70
     0
  9
$DIMLDRBLK
  1

  9
$DIMLUNIT
 70
     2
  9
$DIMLWD
 70
    -2
  9
$DIMLWE
 70
    -2
  9
$DIMTMOVE
 70
     0
  9
$LUNITS
 70
     2
  9
$LUPREC
 70
     4
  9
$SKETCHINC
 40
0.1
  9
$FILLETRAD
 40
0.0
  9
$AUNITS
 70
     0
  9
$AUPREC
 70
     0
  9
$MENU
  1
acad
  9
$ELEVATION
 40
0.0
  9
$PELEVATION
 40
0.0
  9
$THICKNESS
 40
0.0
  9
$LIMCHECK
 70
     0
  9
$CHAMFERA
 40
0.0
  9
$CHAMFERB
 40
0.0
  9
$CHAMFERC
 40
0.0
  9
$CHAMFERD
 40
0.0
  9
$SKPOLY
 70
     0
  9
$TDCREATE
 40
2313894.285194965
  9
$TDUCREATE
 40
2313893.910194965
  9
$TDUPDATE
 40
2455959.449115370
  9
$TDUUPDATE
 40
2455959.074115370
  9
$TDINDWG
 40
0.0015615278
  9
$TDUSRTIMER
 40
0.0015614236
  9
$USRTIMER
 70
     1
  9
$ANGBASE
 50
0.0
  9
$ANGDIR
 70
     0
  9
$PDMODE
 70
     0
  9
$PDSIZE
 40
0.0
  9
$PLINEWID
 40
0.0
  9
$SPLFRAME
 70
     0
  9
$SPLINETYPE
 70
     6
  9
$SPLINESEGS
 70
     8
  9
$HANDSEED
  5
1B2
  9
$SURFTAB1
 70
     6
  9
$SURFTAB2
 70
     6
  9
$SURFTYPE
 70
     6
  9
$SURFU
 70
     6
  9
$SURFV
 70
     6
  9
$UCSBASE
  2

  9
$UCSNAME
  2

  9
$UCSORG
 10
0.0
 20
0.0
 30
0.0
  9
$UCSXDIR
 10
1.0
 20
0.0
 30
0.0
  9
$UCSYDIR
 10
0.0
 20
1.0
 30
0.0
  9
$UCSORTHOREF
  2

  9
$UCSORTHOVIEW
 70
     0
  9
$UCSORGTOP
 10
0.0
 20
0.0
 30
0.0
  9
$UCSORGBOTTOM
 10
0.0
 20
0.0
 30
0.0
  9
$UCSORGLEFT
 10
0.0
 20
0.0
 30
0.0
  9
$UCSORGRIGHT
 10
0.0
 20
0.0
 30
0.0
  9
$UCSORGFRONT
 10
0.0
 20
0.0
 30
0.0
  9
$UCSORGBACK
 10
0.0
 20
0.0
 30
0.0
  9
$PUCSBASE
  2

  9
$PUCSNAME
  2

  9
$PUCSORG
 10
0.0
 20
0.0
 30
0.0
  9
$PUCSXDIR
 10
1.0
 20
0.0
 30
0.0
  9
$PUCSYDIR
 10
0.0
 20
1.0
 30
0.0
  9
$PUCSORTHOREF
  2

  9
$PUCSORTHOVIEW
 70
     0
  9
$PUCSORGTOP
 10
0.0
 20
0.0
 30
0.0
  9
$PUCSORGBOTTOM
 10
0.0
 20
0.0
 30
0.0
  9
$PUCSORGLEFT
 10
0.0
 20
0.0
 30
0.0
  9
$PUCSORGRIGHT
 10
0.0
 20
0.0
 30
0.0
  9
$PUCSORGFRONT
 10
0.0
 20
0.0
 30
0.0
  9
$PUCSORGBACK
 10
0.0
 20
0.0
 30
0.0
  9
$USERI1
 70
     0
  9
$USERI2
 70
     0
  9
$USERI3
 70
     0
  9
$USERI4
 70
     0
  9
$USERI5
 70
     0
  9
$USERR1
 40
0.0
  9
$USERR2
 40
0.0
  9
$USERR3
 40
0.0
  9
$USERR4
 40
0.0
  9
$USERR5
 40
0.0
  9
$WORLDVIEW
 70
     1
  9
$SHADEDGE
 70
     3
  9
$SHADEDIF
 70
    70
  9
$TILEMODE
 70
     1
  9
$MAXACTVP
 70
    64
  9
$PINSBASE
 10
0.0
 20
0.0
 30
0.0
  9
$PLIMCHECK
 70
     0
  9
$PEXTMIN
 10
1.000000000000000E+20
 20
1.000000000000000E+20
 30
1.000000000000000E+20
  9
$PEXTMAX
 10
-1.000000000000000E+20
 20
-1.000000000000000E+20
 30
-1.000000000000000E+20
  9
$PLIMMIN
 10
0.0
 20
0.0
  9
$PLIMMAX
 10
12.0
 20
9.0
  9
$UNITMODE
 70
     0
  9
$VISRETAIN
 70
     1
  9
$PLINEGEN
 70
     0
  9
$PSLTSCALE
 70
     1
  9
$TREEDEPTH
 70
  3020
  9
$CMLSTYLE
  2
Standard
  9
$CMLJUST
 70
     0
  9
$CMLSCALE
 40
1.0
  9
$PROXYGRAPHICS
 70
     1
  9
$MEASUREMENT
 70
     0
  9
$CELWEIGHT
370
    -1
  9
$ENDCAPS
280
     0
  9
$JOINSTYLE
280
     0
  9
$LWDISPLAY
290
     0
  9
$INSUNITS
 70
     0
  9
$HYPERLINKBASE
  1

  9
$STYLESHEET
  1

  9
$XEDIT
290
     1
  9
$CEPSNTYPE
380
     0
  9
$PSTYLEMODE
290
     1
  9
$FINGERPRINTGUID
  2
{2120CF5B-73A6-4D64-BAB5-1227FCBE7C51}
  9
$VERSIONGUID
  2
{3236EDB8-553C-42C9-8633-F1D802647BA2}
  9
$EXTNAMES
290
     1
  9
$PSVPSCALE
 40
0.0
  9
$OLESTARTUP
290
     0
  0
ENDSEC
  0
SECTION
  2
CLASSES
  0
CLASS
  1
ACDBDICTIONARYWDFLT
  2
AcDbDictionaryWithDefault
  3
AutoCAD 2000
 90
        0
280
     0
281
     0
  0
CLASS
  1
ACDBPLACEHOLDER
  2
AcDbPlaceHolder
  3
AutoCAD 2000
 90
        0
280
     0
281
     0
  0
CLASS
  1
LAYOUT
  2
AcDbLayout
  3
AutoCAD 2000
 90
        0
280
     0
281
     0
  0
CLASS
  1
DICTIONARYVAR
  2
AcDbDictionaryVar
  3
AutoCAD 2000
 90
        0
280
     0
281
     0
  0
ENDSEC
  0
SECTION
  2
TABLES
  0
TABLE
  2
VPORT
  5
8
330
0
100
AcDbSymbolTable
 70
     2
  0
VPORT
  5
1B1
330
8
100
AcDbSymbolTableRecord
100
AcDbViewportTableRecord
  2
*Active
 70
     0
 10
0.0
 20
0.0
 11
1.0
 21
1.0
 12
0.0000009196810993
 22
0.0000006332993507
 13
0.0
 23
0.0
 14
1.0
 24
1.0
 15
0.0
 25
0.0
 16
0.0
 26
0.0
 36
1.0
 17
0.0
 27
0.0
 37
0.0
 40
275.119452530913
 41
2.457142857142857
 42
50.0
 43
0.0
 44
0.0
 50
0.0
 51
0.0
 71
     0
 72
   100
 73
     1
 74
     1
 75
     0
 76
     0
 77
     0
 78
     0
281
     0
 65
     1
110
0.0
120
0.0
130
0.0
111
1.0
121
0.0
131
0.0
112
0.0
122
1.0
132
0.0
 79
     0
146
0.0
  0
ENDTAB
  0
TABLE
  2
LTYPE
  5
5
330
0
100
AcDbSymbolTable
 70
    25
  0
LTYPE
  5
13
330
5
100
AcDbSymbolTableRecord
100
AcDbLinetypeTableRecord
  2
ByBlock
 70
     0
  3

 72
    65
 73
     0
 40
0.0
  0
LTYPE
  5
14
330
5
100
AcDbSymbolTableRecord
100
AcDbLinetypeTableRecord
  2
ByLayer
 70
     0
  3

 72
    65
 73
     0
 40
0.0
  0
LTYPE
  5
15
330
5
100
AcDbSymbolTableRecord
100
AcDbLinetypeTableRecord
  2
CONTINUOUS
 70
     0
  3
Solid line
 72
    65
 73
     0
 40
0.0
  0
LTYPE
  5
22
330
5
100
AcDbSymbolTableRecord
100
AcDbLinetypeTableRecord
  2
DASHED
 70
     0
  3
DASHED
 72
    65
 73
     2
 40
0.75
 49
0.5
 74
     0
 49
-0.25
 74
     0
  0
LTYPE
  5
23
330
5
100
AcDbSymbolTableRecord
100
AcDbLinetypeTableRecord
  2
HIDDEN
 70
     0
  3
HIDDEN
 72
    65
 73
     2
 40
0.375
 49
0.25
 74
     0
 49
-0.125
 74
     0
  0
LTYPE
  5
24
330
5
100
AcDbSymbolTableRecord
100
AcDbLinetypeTableRecord
  2
CENTER
 70
     0
  3
CENTER
 72
    65
 73
     4
 40
2.0
 49
1.25
 74
     0
 49
-0.25
 74
     0
 49
0.25
 74
     0
 49
-0.25
 74
     0
  0
LTYPE
  5
25
330
5
100
AcDbSymbolTableRecord
100
AcDbLinetypeTableRecord
  2
PHANTOM
 70
     0
  3
PHANTOM
 72
    65
 73
     6
 40
2.5
 49
1.25
 74
     0
 49
-0.25
 74
     0
 49
0.25
 74
     0
 49
-0.25
 74
     0
 49
0.25
 74
     0
 49
-0.25
 74
     0
  0
LTYPE
  5
26
330
5
100
AcDbSymbolTableRecord
100
AcDbLinetypeTableRecord
  2
BORDER
 70
     0
  3
BORDER
 72
    65
 73
     6
 40
1.75
 49
0.5
 74
     0
 49
-0.25
 74
     0
 49
0.5
 74
     0
 49
-0.25
 74
     0
 49
0.0
 74
     0
 49
-0.25
 74
     0
  0
LTYPE
  5
27
330
5
100
AcDbSymbolTableRecord
100
AcDbLinetypeTableRecord
  2
BORDER2
 70
     0
  3
BORDER2
 72
    65
 73
     6
 40
0.875
 49
0.25
 74
     0
 49
-0.125
 74
     0
 49
0.25
 74
     0
 49
-0.125
 74
     0
 49
0.0
 74
     0
 49
-0.125
 74
     0
  0
LTYPE
  5
28
330
5
100
AcDbSymbolTableRecord
100
AcDbLinetypeTableRecord
  2
BORDERX2
 70
     0
  3
BORDERX2
 72
    65
 73
     6
 40
3.5
 49
1.0
 74
     0
 49
-0.5
 74
     0
 49
1.0
 74
     0
 49
-0.5
 74
     0
 49
0.0
 74
     0
 49
-0.5
 74
     0
  0
LTYPE
  5
29
330
5
100
AcDbSymbolTableRecord
100
AcDbLinetypeTableRecord
  2
CENTER2
 70
     0
  3
CENTER2
 72
    65
 73
     4
 40
1.125
 49
0.75
 74
     0
 49
-0.125
 74
     0
 49
0.125
 74
     0
 49
-0.125
 74
     0
  0
LTYPE
  5
2A
330
5
100
AcDbSymbolTableRecord
100
AcDbLinetypeTableRecord
  2
CENTERX2
 70
     0
  3
CENTERX2
 72
    65
 73
     4
 40
4.0
 49
2.5
 74
     0
 49
-0.5
 74
     0
 49
0.5
 74
     0
 49
-0.5
 74
     0
  0
LTYPE
  5
2B
330
5
100
AcDbSymbolTableRecord
100
AcDbLinetypeTableRecord
  2
DASHDOT
 70
     0
  3
DASHDOT
 72
    65
 73
     4
 40
1.0
 49
0.5
 74
     0
 49
-0.25
 74
     0
 49
0.0
 74
     0
 49
-0.25
 74
     0
  0
LTYPE
  5
2C
330
5
100
AcDbSymbolTableRecord
100
AcDbLinetypeTableRecord
  2
DASHDOT2
 70
     0
  3
DASHDOT2
 72
    65
 73
     4
 40
0.5
 49
0.25
 74
     0
 49
-0.125
 74
     0
 49
0.0
 74
     0
 49
-0.125
 74
     0
  0
LTYPE
  5
2D
330
5
100
AcDbSymbolTableRecord
100
AcDbLinetypeTableRecord
  2
DASHDOTX2
 70
     0
  3
DASHDOTX2
 72
    65
 73
     4
 40
2.0
 49
1.0
 74
     0
 49
-0.5
 74
     0
 49
0.0
 74
     0
 49
-0.5
 74
     0
  0
LTYPE
  5
2E
330
5
100
AcDbSymbolTableRecord
100
AcDbLinetypeTableRecord
  2
DASHED2
 70
     0
  3
DASHED2
 72
    65
 73
     2
 40
0.375
 49
0.25
 74
     0
 49
-0.125
 74
     0
  0
LTYPE
  5
2F
330
5
100
AcDbSymbolTableRecord
100
AcDbLinetypeTableRecord
  2
DASHEDX2
 70
     0
  3
DASHEDX2
 72
    65
 73
     2
 40
1.5
 49
1.0
 74
     0
 49
-0.5
 74
     0
  0
LTYPE
  5
30
330
5
100
AcDbSymbolTableRecord
100
AcDbLinetypeTableRecord
  2
DIVIDE
 70
     0
  3
DIVIDE
 72
    65
 73
     6
 40
1.25
 49
0.5
 74
     0
 49
-0.25
 74
     0
 49
0.0
 74
     0
 49
-0.25
 74
     0
 49
0.0
 74
     0
 49
-0.25
 74
     0
  0
LTYPE
  5
31
330
5
100
AcDbSymbolTableRecord
100
AcDbLinetypeTableRecord
  2
DIVIDE2
 70
     0
  3
DIVIDE2
 72
    65
 73
     6
 40
0.625
 49
0.25
 74
     0
 49
-0.125
 74
     0
 49
0.0
 74
     0
 49
-0.125
 74
     0
 49
0.0
 74
     0
 49
-0.125
 74
     0
  0
LTYPE
  5
32
330
5
100
AcDbSymbolTableRecord
100
AcDbLinetypeTableRecord
  2
DIVIDEX2
 70
     0
  3
DIVIDEX2
 72
    65
 73
     6
 40
2.5
 49
1.0
 74
     0
 49
-0.5
 74
     0
 49
0.0
 74
     0
 49
-0.5
 74
     0
 49
0.0
 74
     0
 49
-0.5
 74
     0
  0
LTYPE
  5
33
330
5
100
AcDbSymbolTableRecord
100
AcDbLinetypeTableRecord
  2
DOT
 70
     0
  3
DOT
 72
    65
 73
     2
 40
0.25
 49
0.0
 74
     0
 49
-0.25
 74
     0
  0
LTYPE
  5
34
330
5
100
AcDbSymbolTableRecord
100
AcDbLinetypeTableRecord
  2
DOT2
 70
     0
  3
DOT2
 72
    65
 73
     2
 40
0.125
 49
0.0
 74
     0
 49
-0.125
 74
     0
  0
LTYPE
  5
35
330
5
100
AcDbSymbolTableRecord
100
AcDbLinetypeTableRecord
  2
DOTX2
 70
     0
  3
DOTX2
 72
    65
 73
     2
 40
0.5
 49
0.0
 74
     0
 49
-0.5
 74
     0
  0
LTYPE
  5
36
330
5
100
AcDbSymbolTableRecord
100
AcDbLinetypeTableRecord
  2
HIDDEN2
 70
     0
  3
HIDDEN2
 72
    65
 73
     2
 40
0.1875
 49
0.125
 74
     0
 49
-0.0625
 74
     0
  0
LTYPE
  5
37
330
5
100
AcDbSymbolTableRecord
100
AcDbLinetypeTableRecord
  2
HIDDENX2
 70
     0
  3
HIDDENX2
 72
    65
 73
     2
 40
0.75
 49
0.5
 74
     0
 49
-0.25
 74
     0
  0
LTYPE
  5
38
330
5
100
AcDbSymbolTableRecord
100
AcDbLinetypeTableRecord
  2
PHANTOM2
 70
     0
  3
PHANTOM2
 72
    65
 73
     6
 40
1.25
 49
0.625
 74
     0
 49
-0.125
 74
     0
 49
0.125
 74
     0
 49
-0.125
 74
     0
 49
0.125
 74
     0
 49
-0.125
 74
     0
  0
LTYPE
  5
39
330
5
100
AcDbSymbolTableRecord
100
AcDbLinetypeTableRecord
  2
PHANTOMX2
 70
     0
  3
PHANTOMX2
 72
    65
 73
     6
 40
5.0
 49
2.5
 74
     0
 49
-0.5
 74
     0
 49
0.5
 74
     0
 49
-0.5
 74
     0
 49
0.5
 74
     0
 49
-0.5
 74
     0
  0
ENDTAB
  0
TABLE
  2
LAYER
  5
2
330
0
100
AcDbSymbolTable
 70
     5
  0
LAYER
  5
10
330
2
100
AcDbSymbolTableRecord
100
AcDbLayerTableRecord
  2
0
 70
     0
 62
     7
  6
CONTINUOUS
370
    -3
390
F
  0
LAYER
  5
3A
330
2
100
AcDbSymbolTableRecord
100
AcDbLayerTableRecord
  2
001
 70
     0
 62
     7
  6
CONTINUOUS
370
    -3
390
F
  0
LAYER
  5
3B
330
2
100
AcDbSymbolTableRecord
100
AcDbLayerTableRecord
  2
002
 70
     0
 62
     7
  6
CONTINUOUS
370
    -3
390
F
  0
LAYER
  5
3C
330
2
100
AcDbSymbolTableRecord
100
AcDbLayerTableRecord
  2
003
 70
     0
 62
     7
  6
CONTINUOUS
370
    -3
390
F
  0
LAYER
  5
3D
330
2
100
AcDbSymbolTableRecord
100
AcDbLayerTableRecord
  2
255
 70
     0
 62
     7
  6
CONTINUOUS
370
    -3
390
F
  0
ENDTAB
  0
TABLE
  2
STYLE
  5
3
330
0
100
AcDbSymbolTable
 70
     2
  0
STYLE
  5
11
330
3
100
AcDbSymbolTableRecord
100
AcDbTextStyleTableRecord
  2
STANDARD
 70
     0
 40
0.0
 41
1.0
 50
0.0
 71
     0
 42
0.2
  3
TXT
  4
BIGFONT
  0
STYLE
  5
3E
330
3
100
AcDbSymbolTableRecord
100
AcDbTextStyleTableRecord
  2
TATEGAKI
 70
     4
 40
1.0
 41
1.0
 50
0.0
 71
     0
 42
0.2
  3
TXT
  4
BIGFONT
  0
ENDTAB
  0
TABLE
  2
VIEW
  5
6
330
0
100
AcDbSymbolTable
 70
     0
  0
ENDTAB
  0
TABLE
  2
UCS
  5
7
330
0
100
AcDbSymbolTable
 70
     0
  0
ENDTAB
  0
TABLE
  2
APPID
  5
9
330
0
100
AcDbSymbolTable
 70
     1
  0
APPID
  5
12
330
9
100
AcDbSymbolTableRecord
100
AcDbRegAppTableRecord
  2
ACAD
 70
     0
  0
ENDTAB
  0
TABLE
  2
DIMSTYLE
  5
A
330
0
100
AcDbSymbolTable
 70
     1
100
AcDbDimStyleTable
 71
     0
  0
DIMSTYLE
105
17A
330
A
100
AcDbSymbolTableRecord
100
AcDbDimStyleTableRecord
  2
Standard
 70
     0
340
11
  0
ENDTAB
  0
TABLE
  2
BLOCK_RECORD
  5
1
330
0
100
AcDbSymbolTable
 70
     5
  0
BLOCK_RECORD
  5
1E
330
1
100
AcDbSymbolTableRecord
100
AcDbBlockTableRecord
  2
*Model_Space
340
21
  0
BLOCK_RECORD
  5
1A
330
1
100
AcDbSymbolTableRecord
100
AcDbBlockTableRecord
  2
*Paper_Space
340
1D
  0
BLOCK_RECORD
  5
42
330
1
100
AcDbSymbolTableRecord
100
AcDbBlockTableRecord
  2
ARROW
340
0
102
{BLKREFS
331
4F
331
50
331
5B
331
66
331
67
331
72
331
73
331
197
331
198
331
19D
331
19E
331
1A3
331
1A4
331
1A9
102
}
  0
ENDTAB
  0
ENDSEC
  0
SECTION
  2
BLOCKS
  0
BLOCK
  5
1F
330
1E
100
AcDbEntity
  8
0
100
AcDbBlockBegin
  2
*Model_Space
 70
     0
 10
0.0
 20
0.0
 30
0.0
  3
*Model_Space
  1

  0
ENDBLK
  5
20
330
1E
100
AcDbEntity
  8
0
100
AcDbBlockEnd
  0
BLOCK
  5
1B
330
1A
100
AcDbEntity
 67
     1
  8
0
100
AcDbBlockBegin
  2
*Paper_Space
 70
     0
 10
0.0
 20
0.0
 30
0.0
  3
*Paper_Space
  1

  0
ENDBLK
  5
1C
330
1A
100
AcDbEntity
 67
     1
  8
0
100
AcDbBlockEnd
  0
BLOCK
  5
43
330
42
100
AcDbEntity
  8
0
100
AcDbBlockBegin
  2
ARROW
 70
     0
 10
0.0
 20
0.0
 30
0.0
  3
ARROW
  1

  0
LWPOLYLINE
  5
44
330
42
100
AcDbEntity
  8
0
  6
Continuous
 62
     0
100
AcDbPolyline
 90
        3
 70
     0
 43
0.0
 10
2.0
 20
0.535898
 10
0.0
 20
0.0
 10
2.0
 20
-0.535898
  0
ENDBLK
  5
49
330
42
100
AcDbEntity
  8
0
100
AcDbBlockEnd
  0
ENDSEC
  0
SECTION
  2
ENTITIES
  0
TEXT
  5
7D
330
1E
100
AcDbEntity
  8
001
 62
     0
100
AcDbText
 10
181.3774129999999
 20
-119.186224
 30
0.0
 40
6.299999999999998
  1
mm
100
AcDbText
  0
TEXT
  5
7E
330
1E
100
AcDbEntity
  8
001
 62
     0
100
AcDbText
 10
178.62611
 20
-109.684552
 30
0.0
 40
6.299999999999998
  1
1/1
 41
1.285714
100
AcDbText
  0
TEXT
  5
7F
330
1E
100
AcDbEntity
  8
001
 62
     0
100
AcDbText
 10
178.356426
 20
-131.170213
 30
0.0
 40
5.0
  1
H19.12
 41
0.771429
100
AcDbText
  0
LINE
  5
80
330
1E
100
AcDbEntity
  8
001
 62
     0
100
AcDbLine
 10
100.4296459999999
 20
25.406039
 30
0.0
 11
101.4296459999999
 21
25.406039
 31
0.0
  0
LINE
  5
81
330
1E
100
AcDbEntity
  8
001
 62
     0
100
AcDbLine
 10
100.4296459999999
 20
-64.59396099999999
 30
0.0
 11
101.4296459999999
 21
-64.59396099999999
 31
0.0
  0
LINE
  5
82
330
1E
100
AcDbEntity
  8
001
 62
     0
100
AcDbLine
 10
100.4296459999999
 20
25.406039
 30
0.0
 11
100.4296459999999
 21
-64.59396099999999
 31
0.0
  0
LINE
  5
83
330
1E
100
AcDbEntity
  8
001
 62
     0
100
AcDbLine
 10
101.4296459999999
 20
-64.59396099999999
 30
0.0
 11
101.4296459999999
 21
25.406039
 31
0.0
  0
TEXT
  5
84
330
1E
100
AcDbEntity
  8
001
 62
     0
100
AcDbText
 10
-191.37603
 20
121.9062169999999
 30
0.0
 40
6.299999999999998
  1
■　仕様
 41
0.833333
100
AcDbText
  0
LINE
  5
85
330
1E
100
AcDbEntity
  8
001
 62
     0
100
AcDbLine
 10
-190.620709
 20
107.479813
 30
0.0
 11
-42.52538
 21
107.479813
 31
0.0
  0
LINE
  5
86
330
1E
100
AcDbEntity
  8
001
 62
     0
100
AcDbLine
 10
-190.620709
 20
113.4798129999999
 30
0.0
 11
-42.52538
 21
113.4798129999999
 31
0.0
  0
LINE
  5
87
330
1E
100
AcDbEntity
  8
001
 62
     0
100
AcDbLine
 10
-190.620709
 20
119.4798129999999
 30
0.0
 11
-42.52538
 21
119.4798129999999
 31
0.0
  0
LINE
  5
88
330
1E
100
AcDbEntity
  8
001
 62
     0
100
AcDbLine
 10
-190.620709
 20
83.479813
 30
0.0
 11
-42.52538
 21
83.479813
 31
0.0
  0
TEXT
  5
89
330
1E
100
AcDbEntity
  8
001
 62
     0
100
AcDbText
 10
91.699114
 20
-119.2744699999999
 30
0.0
 40
6.299999999999998
  1
メカクシパネル　小
 41
0.833333
100
AcDbText
  0
TEXT
  5
8A
330
1E
100
AcDbEntity
  8
001
 62
     0
100
AcDbText
 10
95.43669399999997
 20
-109.174443
 30
0.0
 40
6.299999999999998
  1
SAP-401A
 41
1.066667
100
AcDbText
  0
ARC
  5
8B
330
1E
100
AcDbEntity
  8
001
 62
     0
100
AcDbCircle
 10
5.574537999999997
 20
20.406039
 30
0.0
 40
5.0
100
AcDbArc
 50
0.0
 51
90.0
  0
ARC
  5
8C
330
1E
100
AcDbEntity
  8
001
 62
     0
100
AcDbCircle
 10
-104.425462
 20
20.406039
 30
0.0
 40
5.0
100
AcDbArc
 50
90.0
 51
180.0
  0
LINE
  5
8D
330
1E
100
AcDbEntity
  8
001
 62
     0
100
AcDbLine
 10
5.574537999999997
 20
25.406039
 30
0.0
 11
-104.425462
 21
25.406039
 31
0.0
  0
ARC
  5
8E
330
1E
100
AcDbEntity
  8
001
 62
     0
100
AcDbCircle
 10
5.574537999999997
 20
-59.593961
 30
0.0
 40
5.0
100
AcDbArc
 50
270.0
 51
0.0
  0
ARC
  5
8F
330
1E
100
AcDbEntity
  8
001
 62
     0
100
AcDbCircle
 10
-104.425462
 20
-59.593961
 30
0.0
 40
5.0
100
AcDbArc
 50
180.0
 51
270.0
  0
LINE
  5
90
330
1E
100
AcDbEntity
  8
001
 62
     0
100
AcDbLine
 10
-104.425462
 20
-64.59396099999999
 30
0.0
 11
5.574537999999997
 21
-64.59396099999999
 31
0.0
  0
LINE
  5
91
330
1E
100
AcDbEntity
  8
001
 62
     0
100
AcDbLine
 10
10.57453799999999
 20
20.406039
 30
0.0
 11
10.57453799999999
 21
-59.593961
 31
0.0
  0
LINE
  5
92
330
1E
100
AcDbEntity
  8
001
 62
     0
100
AcDbLine
 10
-109.425462
 20
20.406039
 30
0.0
 11
-109.425462
 21
-59.593961
 31
0.0
  0
LINE
  5
93
330
1E
100
AcDbEntity
  8
001
  6
CENTER
 62
     0
100
AcDbLine
 10
-49.42546199999998
 20
26.027084
 30
0.0
 11
-49.42546199999998
 21
-67.522883
 31
0.0
  0
TEXT
  5
94
330
1E
100
AcDbEntity
  8
003
 62
     0
100
AcDbText
 10
-161.8423429999999
 20
90.47981300000001
 30
0.0
 40
4.0
  1
接着テープ
 41
0.833333
100
AcDbText
  0
TEXT
  5
95
330
1E
100
AcDbEntity
  8
003
 62
     0
100
AcDbText
 10
-161.5211779999999
 20
96.050505
 30
0.0
 40
4.0
  1
パネル
 41
0.833333
100
AcDbText
  0
TEXT
  5
96
330
1E
100
AcDbEntity
  8
003
 62
     0
100
AcDbText
 10
-136.410633
 20
96.545684
 30
0.0
 40
4.0
  1
硬質塩ビ　耐荷重１０ｋｇ　耐熱温度５０～６０℃
 41
0.833333
100
AcDbText
  0
TEXT
  5
97
330
1E
100
AcDbEntity
  8
003
 62
     0
100
AcDbText
 10
-136.248056
 20
90.351221
 30
0.0
 40
4.0
  1
両面テープ　日東Ｎｏ．５００　（パネル裏面）
 41
0.833333
100
AcDbText
  0
LINE
  5
98
330
1E
100
AcDbEntity
  8
003
 62
     0
100
AcDbLine
 10
-42.52538
 20
89.479813
 30
0.0
 11
-42.52538
 21
107.479813
 31
0.0
  0
LINE
  5
99
330
1E
100
AcDbEntity
  8
003
 62
     0
100
AcDbLine
 10
-165.829061
 20
95.47981300000001
 30
0.0
 11
-42.52538
 21
95.47981300000001
 31
0.0
  0
LINE
  5
9A
330
1E
100
AcDbEntity
  8
003
 62
     0
100
AcDbLine
 10
-190.620709
 20
101.479813
 30
0.0
 11
-42.52538
 21
101.479813
 31
0.0
  0
LINE
  5
9B
330
1E
100
AcDbEntity
  8
003
 62
     0
100
AcDbLine
 10
-190.620709
 20
89.479813
 30
0.0
 11
-42.52538
 21
89.479813
 31
0.0
  0
LINE
  5
9C
330
1E
100
AcDbEntity
  8
003
 62
     0
100
AcDbLine
 10
-138.1055149999999
 20
89.479813
 30
0.0
 11
-138.1055149999999
 21
101.479813
 31
0.0
  0
LINE
  5
9D
330
1E
100
AcDbEntity
  8
003
 62
     0
100
AcDbLine
 10
-42.52538
 20
89.479813
 30
0.0
 11
-42.52538
 21
119.4798129999999
 31
0.0
  0
TEXT
  5
9E
330
1E
100
AcDbEntity
  8
003
 62
     0
100
AcDbText
 10
-184.209246
 20
108.445934
 30
0.0
 40
4.0
  1
大きさ
 41
0.833333
100
AcDbText
  0
TEXT
  5
9F
330
1E
100
AcDbEntity
  8
003
 62
     0
100
AcDbText
 10
-183.922953
 20
114.319284
 30
0.0
 40
4.0
  1
形　名
 41
0.833333
100
AcDbText
  0
TEXT
  5
A0
330
1E
100
AcDbEntity
  8
003
 62
     0
100
AcDbText
 10
-183.922953
 20
102.3903989999999
 30
0.0
 40
4.0
  1
重　さ
 41
0.833333
100
AcDbText
  0
TEXT
  5
A1
330
1E
100
AcDbEntity
  8
003
 62
     0
100
AcDbText
 10
-183.856686
 20
92.80464399999999
 30
0.0
 40
4.0
  1
材　質
 41
0.833333
100
AcDbText
  0
TEXT
  5
A2
330
1E
100
AcDbEntity
  8
003
 62
     0
100
AcDbText
 10
-162.027166
 20
102.390767
 30
0.0
 40
4.0
  1
0.035kg
 41
1.166666999999999
100
AcDbText
  0
LINE
  5
A3
330
1E
100
AcDbEntity
  8
003
 62
     0
100
AcDbLine
 10
-42.52538
 20
83.479813
 30
0.0
 11
-42.52538
 21
107.479813
 31
0.0
  0
LINE
  5
A4
330
1E
100
AcDbEntity
  8
003
 62
     0
100
AcDbLine
 10
-190.620709
 20
83.479813
 30
0.0
 11
-190.620709
 21
119.4798129999999
 31
0.0
  0
LINE
  5
A5
330
1E
100
AcDbEntity
  8
003
 62
     0
100
AcDbLine
 10
-165.829061
 20
83.479813
 30
0.0
 11
-165.829061
 21
119.4798129999999
 31
0.0
  0
TEXT
  5
A6
330
1E
100
AcDbEntity
  8
003
 62
     0
100
AcDbText
 10
-180.049798
 20
84.565219
 30
0.0
 40
4.0
  1
色
 41
0.833333
100
AcDbText
  0
TEXT
  5
A7
330
1E
100
AcDbEntity
  8
003
 62
     0
100
AcDbText
 10
-162.351783
 20
84.565219
 30
0.0
 40
4.0
  1
アイボリー　（５Ｙ８．５／３）
 41
0.833333
100
AcDbText
  0
TEXT
  5
A8
330
1E
100
AcDbEntity
  8
003
 62
     0
100
AcDbText
 10
-162.6043759999999
 20
114.033359
 30
0.0
 40
4.0
  1
SAP-401A
 41
1.066667
100
AcDbText
  0
LINE
  5
A9
330
1E
100
AcDbEntity
  8
003
  6
CENTER
 62
     0
100
AcDbLine
 10
14.624074
 20
-19.593961
 30
0.0
 11
-113.160986
 21
-19.593961
 31
0.0
  0
TEXT
  5
AA
330
1E
100
AcDbEntity
  8
003
 62
     0
100
AcDbText
 10
-161.9340159999999
 20
108.25544
 30
0.0
 40
4.0
  1
縦９０×横１２０×厚さ１　ｍｍ
 41
0.833333
100
AcDbText
  0
LINE
  5
AB
330
1E
100
AcDbEntity
  8
255
 62
     0
100
AcDbLine
 10
197.5
 20
136.0
 30
0.0
 11
197.5
 21
-136.0
 31
0.0
  0
LINE
  5
AC
330
1E
100
AcDbEntity
  8
255
 62
     0
100
AcDbLine
 10
-197.5
 20
-136.0
 30
0.0
 11
-197.5
 21
136.0
 31
0.0
  0
LINE
  5
AD
330
1E
100
AcDbEntity
  8
255
 62
     0
100
AcDbLine
 10
197.5
 20
136.0
 30
0.0
 11
-197.5
 21
136.0
 31
0.0
  0
LINE
  5
AE
330
1E
100
AcDbEntity
  8
255
 62
     0
100
AcDbLine
 10
87.971999
 20
-131.140567
 30
0.0
 11
84.121999
 21
-131.140567
 31
0.0
  0
LINE
  5
AF
330
1E
100
AcDbEntity
  8
255
 62
     0
100
AcDbLine
 10
95.121999
 20
-128.2905669999997
 30
0.0
 11
95.121999
 21
-131.140567
 31
0.0
  0
LINE
  5
B0
330
1E
100
AcDbEntity
  8
255
 62
     0
100
AcDbLine
 10
96.121999
 20
-131.140567
 30
0.0
 11
96.121999
 21
-127.1405669999999
 31
0.0
  0
LINE
  5
B1
330
1E
100
AcDbEntity
  8
255
 62
     0
100
AcDbLine
 10
91.42199899999999
 20
-127.1405669999999
 30
0.0
 11
91.42199899999999
 21
-131.140567
 31
0.0
  0
LINE
  5
B2
330
1E
100
AcDbEntity
  8
255
 62
     0
100
AcDbLine
 10
93.82199900000001
 20
-131.140567
 30
0.0
 11
93.82199900000001
 21
-128.2905669999997
 31
0.0
  0
LINE
  5
B3
330
1E
100
AcDbEntity
  8
255
 62
     0
100
AcDbLine
 10
97.42199900000001
 20
-129.4405669999999
 30
0.0
 11
97.42199900000001
 21
-131.140567
 31
0.0
  0
LINE
  5
B4
330
1E
100
AcDbEntity
  8
255
 62
     0
100
AcDbLine
 10
99.82199900000001
 20
-131.140567
 30
0.0
 11
99.82199900000001
 21
-130.3405669999999
 31
0.0
  0
LINE
  5
B5
330
1E
100
AcDbEntity
  8
255
 62
     0
100
AcDbLine
 10
85.97199899999997
 20
-127.740567
 30
0.0
 11
89.121999
 21
-127.740567
 31
0.0
  0
LINE
  5
B6
330
1E
100
AcDbEntity
  8
255
 62
     0
100
AcDbLine
 10
87.271999
 20
-130.5405669999997
 30
0.0
 11
84.121999
 21
-130.5405669999997
 31
0.0
  0
LINE
  5
B7
330
1E
100
AcDbEntity
  8
255
 62
     0
100
AcDbLine
 10
87.971999
 20
-128.8405669999999
 30
0.0
 11
85.97199899999997
 21
-128.8405669999999
 31
0.0
  0
LINE
  5
B8
330
1E
100
AcDbEntity
  8
255
 62
     0
100
AcDbLine
 10
87.271999
 20
-129.4405669999999
 30
0.0
 11
85.27199899999997
 21
-129.4405669999999
 31
0.0
  0
LINE
  5
B9
330
1E
100
AcDbEntity
  8
255
 62
     0
100
AcDbLine
 10
80.987117
 20
-130.9936189999999
 30
0.0
 11
81.835097
 21
-130.145639
 31
0.0
  0
LINE
  5
BA
330
1E
100
AcDbEntity
  8
255
 62
     0
100
AcDbLine
 10
80.552734
 20
-131.003738
 30
0.0
 11
81.84521600000001
 21
-129.7112559999999
 31
0.0
  0
LINE
  5
BB
330
1E
100
AcDbEntity
  8
255
 62
     0
100
AcDbLine
 10
80.12846999999998
 20
-131.003738
 30
0.0
 11
81.84521600000001
 21
-129.286992
 31
0.0
  0
LINE
  5
BC
330
1E
100
AcDbEntity
  8
255
 62
     0
100
AcDbLine
 10
79.704205
 20
-131.003738
 30
0.0
 11
81.84521600000001
 21
-128.862728
 31
0.0
  0
LINE
  5
BD
330
1E
100
AcDbEntity
  8
255
 62
     0
100
AcDbLine
 10
79.27994100000002
 20
-131.003738
 30
0.0
 11
81.84521600000001
 21
-128.4384639999997
 31
0.0
  0
LINE
  5
BE
330
1E
100
AcDbEntity
  8
255
 62
     0
100
AcDbLine
 10
78.855677
 20
-131.003738
 30
0.0
 11
81.84521600000001
 21
-128.0141999999997
 31
0.0
  0
LINE
  5
BF
330
1E
100
AcDbEntity
  8
255
 62
     0
100
AcDbLine
 10
78.431413
 20
-131.003738
 30
0.0
 11
81.84521600000001
 21
-127.589935
 31
0.0
  0
LINE
  5
C0
330
1E
100
AcDbEntity
  8
255
 62
     0
100
AcDbLine
 10
78.007149
 20
-131.003738
 30
0.0
 11
81.84521600000001
 21
-127.165671
 31
0.0
  0
LINE
  5
C1
330
1E
100
AcDbEntity
  8
255
 62
     0
100
AcDbLine
 10
77.582885
 20
-131.003738
 30
0.0
 11
81.84521600000001
 21
-126.741407
 31
0.0
  0
LINE
  5
C2
330
1E
100
AcDbEntity
  8
255
 62
     0
100
AcDbLine
 10
77.15862099999998
 20
-131.003738
 30
0.0
 11
81.84521600000001
 21
-126.3171429999997
 31
0.0
  0
LINE
  5
C3
330
1E
100
AcDbEntity
  8
255
 62
     0
100
AcDbLine
 10
76.73435699999997
 20
-131.003738
 30
0.0
 11
81.638912
 21
-126.099183
 31
0.0
  0
LINE
  5
C4
330
1E
100
AcDbEntity
  8
255
 62
     0
100
AcDbLine
 10
75.472424
 20
-130.517952
 30
0.0
 11
79.986637
 21
-126.0037379999999
 31
0.0
  0
LINE
  5
C5
330
1E
100
AcDbEntity
  8
255
 62
     0
100
AcDbLine
 10
73.577016
 20
-130.554781
 30
0.0
 11
78.11800799999997
 21
-126.0137889999999
 31
0.0
  0
LINE
  5
C6
330
1E
100
AcDbEntity
  8
255
 62
     0
100
AcDbLine
 10
77.359379
 20
-126.4895749999999
 30
0.0
 11
72.84521600000002
 21
-131.003738
 31
0.0
  0
LINE
  5
C7
330
1E
100
AcDbEntity
  8
255
 62
     0
100
AcDbLine
 10
78.835115
 20
-126.589575
 30
0.0
 11
74.341053
 21
-131.083637
 31
0.0
  0
ARC
  5
C8
330
1E
100
AcDbEntity
  8
255
 62
     0
100
AcDbCircle
 10
80.24932900000001
 20
-128.0037879999997
 30
0.0
 40
2.0
100
AcDbArc
 50
98.130102
 51
135.0
  0
ARC
  5
C9
330
1E
100
AcDbEntity
  8
255
 62
     0
100
AcDbCircle
 10
72.162803
 20
-129.140567
 30
0.0
 40
2.0
100
AcDbArc
 50
289.158067
 51
315.0
  0
ARC
  5
CA
330
1E
100
AcDbEntity
  8
255
 62
     0
100
AcDbCircle
 10
78.77359300000001
 20
-127.9037879999999
 30
0.0
 40
2.0
100
AcDbArc
 50
109.1580669999999
 51
135.0
  0
LINE
  5
CB
330
1E
100
AcDbEntity
  8
255
 62
     0
100
AcDbLine
 10
75.01880899999997
 20
-130.688724
 30
0.0
 11
79.522198
 21
-126.185335
 31
0.0
  0
ARC
  5
CC
330
1E
100
AcDbEntity
  8
255
 62
     0
100
AcDbCircle
 10
82.249379
 20
-128.003738
 30
0.0
 40
2.0
100
AcDbArc
 50
101.389514
 51
135.0
  0
LINE
  5
CD
330
1E
100
AcDbEntity
  8
255
 62
     0
100
AcDbLine
 10
80.83516499999998
 20
-126.589525
 30
0.0
 11
76.42095199999999
 21
-131.003738
 31
0.0
  0
LINE
  5
CE
330
1E
100
AcDbEntity
  8
255
 62
     0
100
AcDbLine
 10
76.42095199999999
 20
-131.003738
 30
0.0
 11
80.845216
 21
-131.003738
 31
0.0
  0
ARC
  5
CF
330
1E
100
AcDbEntity
  8
255
 62
     0
100
AcDbCircle
 10
80.845216
 20
-130.003738
 30
0.0
 40
1.0
100
AcDbArc
 50
270.0
 51
0.0
  0
LINE
  5
D0
330
1E
100
AcDbEntity
  8
255
 62
     0
100
AcDbLine
 10
81.84521600000001
 20
-130.003738
 30
0.0
 11
81.84521600000001
 21
-126.045001
 31
0.0
  0
ARC
  5
D1
330
1E
100
AcDbEntity
  8
255
 62
     0
100
AcDbCircle
 10
74.05821
 20
-129.1037379999999
 30
0.0
 40
2.0
100
AcDbArc
 50
278.130102
 51
315.0
  0
ARC
  5
D2
330
1E
100
AcDbEntity
  8
255
 62
     0
100
AcDbCircle
 10
85.27199899999997
 20
-128.2905669999997
 30
0.0
 40
1.149999999999999
100
AcDbArc
 50
90.0
 51
270.0
  0
ARC
  5
D3
330
1E
100
AcDbEntity
  8
255
 62
     0
100
AcDbCircle
 10
87.271999
 20
-129.990567
 30
0.0
 40
0.55
100
AcDbArc
 50
270.0
 51
90.0
  0
ARC
  5
D4
330
1E
100
AcDbEntity
  8
255
 62
     0
100
AcDbCircle
 10
85.97199899999997
 20
-128.2905669999997
 30
0.0
 40
0.55
100
AcDbArc
 50
90.0
 51
270.0
  0
ARC
  5
D5
330
1E
100
AcDbEntity
  8
255
 62
     0
100
AcDbCircle
 10
87.971999
 20
-129.990567
 30
0.0
 40
1.149999999999999
100
AcDbArc
 50
270.0
 51
90.0
  0
LINE
  5
D6
330
1E
100
AcDbEntity
  8
255
 62
     0
100
AcDbLine
 10
91.42199899999999
 20
-131.140567
 30
0.0
 11
90.121999
 21
-131.140567
 31
0.0
  0
LINE
  5
D7
330
1E
100
AcDbEntity
  8
255
 62
     0
100
AcDbLine
 10
91.87199900000001
 20
-127.740567
 30
0.0
 11
91.87199900000001
 21
-127.1405669999999
 31
0.0
  0
LINE
  5
D8
330
1E
100
AcDbEntity
  8
255
 62
     0
100
AcDbLine
 10
85.27199899999997
 20
-127.1405669999999
 30
0.0
 11
89.121999
 21
-127.1405669999999
 31
0.0
  0
LINE
  5
D9
330
1E
100
AcDbEntity
  8
255
 62
     0
100
AcDbLine
 10
91.42199899999999
 20
-127.1405669999999
 30
0.0
 11
90.121999
 21
-127.1405669999999
 31
0.0
  0
LINE
  5
DA
330
1E
100
AcDbEntity
  8
255
 62
     0
100
AcDbLine
 10
90.121999
 20
-131.140567
 30
0.0
 11
90.121999
 21
-127.1405669999999
 31
0.0
  0
LINE
  5
DB
330
1E
100
AcDbEntity
  8
255
 62
     0
100
AcDbLine
 10
95.121999
 20
-131.140567
 30
0.0
 11
93.82199900000001
 21
-131.140567
 31
0.0
  0
LINE
  5
DC
330
1E
100
AcDbEntity
  8
255
 62
     0
100
AcDbLine
 10
93.971999
 20
-127.1405669999999
 30
0.0
 11
91.87199900000001
 21
-127.1405669999999
 31
0.0
  0
LINE
  5
DD
330
1E
100
AcDbEntity
  8
255
 62
     0
100
AcDbLine
 10
91.87199900000001
 20
-127.740567
 30
0.0
 11
93.271999
 21
-127.740567
 31
0.0
  0
ARC
  5
DE
330
1E
100
AcDbEntity
  8
255
 62
     0
100
AcDbCircle
 10
93.271999
 20
-128.2905669999997
 30
0.0
 40
0.55
100
AcDbArc
 50
0.0
 51
90.0
  0
LINE
  5
DF
330
1E
100
AcDbEntity
  8
255
 62
     0
100
AcDbLine
 10
101.121999
 20
-131.140567
 30
0.0
 11
99.82199900000001
 21
-131.140567
 31
0.0
  0
LINE
  5
E0
330
1E
100
AcDbEntity
  8
255
 62
     0
100
AcDbLine
 10
99.82199900000001
 20
-127.1405669999999
 30
0.0
 11
101.121999
 21
-127.1405669999999
 31
0.0
  0
ARC
  5
E1
330
1E
100
AcDbEntity
  8
255
 62
     0
100
AcDbCircle
 10
93.971999
 20
-128.2905669999997
 30
0.0
 40
1.149999999999999
100
AcDbArc
 50
0.0
 51
90.0
  0
LINE
  5
E2
330
1E
100
AcDbEntity
  8
255
 62
     0
100
AcDbLine
 10
97.42199900000001
 20
-128.8405669999999
 30
0.0
 11
99.521999
 21
-128.8405669999999
 31
0.0
  0
LINE
  5
E3
330
1E
100
AcDbEntity
  8
255
 62
     0
100
AcDbLine
 10
99.521999
 20
-129.4405669999999
 30
0.0
 11
97.42199900000001
 21
-129.4405669999999
 31
0.0
  0
LINE
  5
E4
330
1E
100
AcDbEntity
  8
255
 62
     0
100
AcDbLine
 10
101.121999
 20
-130.6405669999997
 30
0.0
 11
101.121999
 21
-131.140567
 31
0.0
  0
ARC
  5
E5
330
1E
100
AcDbEntity
  8
255
 62
     0
100
AcDbCircle
 10
99.62199900000001
 20
-127.6405669999999
 30
0.0
 40
1.5
100
AcDbArc
 50
270.0
 51
0.0
  0
ARC
  5
E6
330
1E
100
AcDbEntity
  8
255
 62
     0
100
AcDbCircle
 10
99.62199900000001
 20
-130.6405669999997
 30
0.0
 40
1.5
100
AcDbArc
 50
0.0
 51
90.0
  0
ARC
  5
E7
330
1E
100
AcDbEntity
  8
255
 62
     0
100
AcDbCircle
 10
98.321999
 20
-130.3405669999999
 30
0.0
 40
1.5
100
AcDbArc
 50
0.0
 51
36.869898
  0
LINE
  5
E8
330
1E
100
AcDbEntity
  8
255
 62
     0
100
AcDbLine
 10
99.82199900000001
 20
-127.9405669999997
 30
0.0
 11
99.82199900000001
 21
-127.1405669999999
 31
0.0
  0
ARC
  5
E9
330
1E
100
AcDbEntity
  8
255
 62
     0
100
AcDbCircle
 10
98.321999
 20
-127.9405669999997
 30
0.0
 40
1.5
100
AcDbArc
 50
323.130102
 51
0.0
  0
LINE
  5
EA
330
1E
100
AcDbEntity
  8
255
 62
     0
100
AcDbLine
 10
97.42199900000001
 20
-131.140567
 30
0.0
 11
96.121999
 21
-131.140567
 31
0.0
  0
LINE
  5
EB
330
1E
100
AcDbEntity
  8
255
 62
     0
100
AcDbLine
 10
101.121999
 20
-127.1405669999999
 30
0.0
 11
101.121999
 21
-127.6405669999999
 31
0.0
  0
LINE
  5
EC
330
1E
100
AcDbEntity
  8
255
 62
     0
100
AcDbLine
 10
97.42199900000001
 20
-127.1405669999999
 30
0.0
 11
96.121999
 21
-127.1405669999999
 31
0.0
  0
LINE
  5
ED
330
1E
100
AcDbEntity
  8
255
 62
     0
100
AcDbLine
 10
97.42199900000001
 20
-127.1405669999999
 30
0.0
 11
97.42199900000001
 21
-128.8405669999999
 31
0.0
  0
LINE
  5
EE
330
1E
100
AcDbEntity
  8
255
 62
     0
100
AcDbLine
 10
89.121999
 20
-127.1405669999999
 30
0.0
 11
89.121999
 21
-127.740567
 31
0.0
  0
LINE
  5
EF
330
1E
100
AcDbEntity
  8
255
 62
     0
100
AcDbLine
 10
84.121999
 20
-130.5405669999997
 30
0.0
 11
84.121999
 21
-131.140567
 31
0.0
  0
TEXT
  5
F0
330
1E
100
AcDbEntity
  8
255
 62
     0
100
AcDbText
 10
104.3554279999999
 20
-131.6405669999997
 30
0.0
 40
5.0
  1
三化工業株式会社
100
AcDbText
  0
LINE
  5
F1
330
1E
100
AcDbEntity
  8
255
 62
     0
100
AcDbLine
 10
88.403644
 20
-131.056485
 30
0.0
 11
89.03791700000002
 21
-130.422213
 31
0.0
  0
LINE
  5
F2
330
1E
100
AcDbEntity
  8
255
 62
     0
100
AcDbLine
 10
88.038653
 20
-131.138634
 30
0.0
 11
89.120065
 21
-130.057222
 31
0.0
  0
LINE
  5
F3
330
1E
100
AcDbEntity
  8
255
 62
     0
100
AcDbLine
 10
87.75387700000001
 20
-131.140567
 30
0.0
 11
89.104384
 21
-129.79006
 31
0.0
  0
LINE
  5
F4
330
1E
100
AcDbEntity
  8
255
 62
     0
100
AcDbLine
 10
87.47103499999999
 20
-131.140567
 30
0.0
 11
89.042129
 21
-129.5694719999999
 31
0.0
  0
LINE
  5
F5
330
1E
100
AcDbEntity
  8
255
 62
     0
100
AcDbLine
 10
87.188192
 20
-131.140567
 30
0.0
 11
88.94738700000003
 21
-129.3813719999999
 31
0.0
  0
LINE
  5
F6
330
1E
100
AcDbEntity
  8
255
 62
     0
100
AcDbLine
 10
86.90534900000001
 20
-131.140567
 30
0.0
 11
88.82577799999998
 21
-129.2201379999999
 31
0.0
  0
LINE
  5
F7
330
1E
100
AcDbEntity
  8
255
 62
     0
100
AcDbLine
 10
86.622506
 20
-131.140567
 30
0.0
 11
87.222506
 21
-130.5405669999997
 31
0.0
  0
LINE
  5
F8
330
1E
100
AcDbEntity
  8
255
 62
     0
100
AcDbLine
 10
87.81994899999999
 20
-129.943125
 30
0.0
 11
88.67928499999996
 21
-129.0837889999999
 31
0.0
  0
LINE
  5
F9
330
1E
100
AcDbEntity
  8
255
 62
     0
100
AcDbLine
 10
86.339664
 20
-131.140567
 30
0.0
 11
86.939664
 21
-130.5405669999997
 31
0.0
  0
LINE
  5
FA
330
1E
100
AcDbEntity
  8
255
 62
     0
100
AcDbLine
 10
87.75420200000002
 20
-129.726029
 30
0.0
 11
88.507419
 21
-128.972812
 31
0.0
  0
LINE
  5
FB
330
1E
100
AcDbEntity
  8
255
 62
     0
100
AcDbLine
 10
86.05682100000001
 20
-131.140567
 30
0.0
 11
86.65682099999996
 21
-130.5405669999997
 31
0.0
  0
LINE
  5
FC
330
1E
100
AcDbEntity
  8
255
 62
     0
100
AcDbLine
 10
87.626951
 20
-129.5704369999999
 30
0.0
 11
88.30695799999999
 21
-128.89043
 31
0.0
  0
LINE
  5
FD
330
1E
100
AcDbEntity
  8
255
 62
     0
100
AcDbLine
 10
85.77397799999998
 20
-131.140567
 30
0.0
 11
86.373978
 21
-130.5405669999997
 31
0.0
  0
LINE
  5
FE
330
1E
100
AcDbEntity
  8
255
 62
     0
100
AcDbLine
 10
87.445797
 20
-129.468749
 30
0.0
 11
88.06981099999999
 21
-128.844734
 31
0.0
  0
LINE
  5
FF
330
1E
100
AcDbEntity
  8
255
 62
     0
100
AcDbLine
 10
85.491136
 20
-131.140567
 30
0.0
 11
86.09113599999998
 21
-130.5405669999997
 31
0.0
  0
LINE
  5
100
330
1E
100
AcDbEntity
  8
255
 62
     0
100
AcDbLine
 10
87.191136
 20
-129.4405669999999
 30
0.0
 11
87.791136
 21
-128.8405669999999
 31
0.0
  0
LINE
  5
101
330
1E
100
AcDbEntity
  8
255
 62
     0
100
AcDbLine
 10
88.89113599999998
 20
-127.740567
 30
0.0
 11
89.121999
 21
-127.509704
 31
0.0
  0
LINE
  5
102
330
1E
100
AcDbEntity
  8
255
 62
     0
100
AcDbLine
 10
85.208293
 20
-131.140567
 30
0.0
 11
85.80829300000003
 21
-130.5405669999997
 31
0.0
  0
LINE
  5
103
330
1E
100
AcDbEntity
  8
255
 62
     0
100
AcDbLine
 10
86.908293
 20
-129.4405669999999
 30
0.0
 11
87.50829300000004
 21
-128.8405669999999
 31
0.0
  0
LINE
  5
104
330
1E
100
AcDbEntity
  8
255
 62
     0
100
AcDbLine
 10
88.608293
 20
-127.740567
 30
0.0
 11
89.121999
 21
-127.226861
 31
0.0
  0
LINE
  5
105
330
1E
100
AcDbEntity
  8
255
 62
     0
100
AcDbLine
 10
84.92544999999998
 20
-131.140567
 30
0.0
 11
85.52545
 21
-130.5405669999997
 31
0.0
  0
LINE
  5
106
330
1E
100
AcDbEntity
  8
255
 62
     0
100
AcDbLine
 10
86.62544999999999
 20
-129.4405669999999
 30
0.0
 11
87.22545
 21
-128.8405669999999
 31
0.0
  0
LINE
  5
107
330
1E
100
AcDbEntity
  8
255
 62
     0
100
AcDbLine
 10
88.32545000000001
 20
-127.740567
 30
0.0
 11
88.92545
 21
-127.1405669999999
 31
0.0
  0
LINE
  5
108
330
1E
100
AcDbEntity
  8
255
 62
     0
100
AcDbLine
 10
84.642607
 20
-131.140567
 30
0.0
 11
85.24260699999997
 21
-130.5405669999997
 31
0.0
  0
LINE
  5
109
330
1E
100
AcDbEntity
  8
255
 62
     0
100
AcDbLine
 10
86.342607
 20
-129.4405669999999
 30
0.0
 11
86.94260699999999
 21
-128.8405669999999
 31
0.0
  0
LINE
  5
10A
330
1E
100
AcDbEntity
  8
255
 62
     0
100
AcDbLine
 10
88.04260699999998
 20
-127.740567
 30
0.0
 11
88.642607
 21
-127.1405669999999
 31
0.0
  0
LINE
  5
10B
330
1E
100
AcDbEntity
  8
255
 62
     0
100
AcDbLine
 10
84.359765
 20
-131.140567
 30
0.0
 11
84.95976500000002
 21
-130.5405669999997
 31
0.0
  0
LINE
  5
10C
330
1E
100
AcDbEntity
  8
255
 62
     0
100
AcDbLine
 10
86.059765
 20
-129.4405669999999
 30
0.0
 11
86.65976500000002
 21
-128.8405669999999
 31
0.0
  0
LINE
  5
10D
330
1E
100
AcDbEntity
  8
255
 62
     0
100
AcDbLine
 10
87.759765
 20
-127.740567
 30
0.0
 11
88.35976499999999
 21
-127.1405669999999
 31
0.0
  0
LINE
  5
10E
330
1E
100
AcDbEntity
  8
255
 62
     0
100
AcDbLine
 10
84.121999
 20
-131.0954899999997
 30
0.0
 11
84.676922
 21
-130.5405669999997
 31
0.0
  0
LINE
  5
10F
330
1E
100
AcDbEntity
  8
255
 62
     0
100
AcDbLine
 10
85.77692199999999
 20
-129.4405669999999
 30
0.0
 11
86.376922
 21
-128.8405669999999
 31
0.0
  0
LINE
  5
110
330
1E
100
AcDbEntity
  8
255
 62
     0
100
AcDbLine
 10
87.47692200000001
 20
-127.740567
 30
0.0
 11
88.07692199999998
 21
-127.1405669999999
 31
0.0
  0
LINE
  5
111
330
1E
100
AcDbEntity
  8
255
 62
     0
100
AcDbLine
 10
84.121999
 20
-130.812648
 30
0.0
 11
84.394079
 21
-130.5405669999997
 31
0.0
  0
LINE
  5
112
330
1E
100
AcDbEntity
  8
255
 62
     0
100
AcDbLine
 10
85.494079
 20
-129.4405669999999
 30
0.0
 11
86.094079
 21
-128.8405669999999
 31
0.0
  0
LINE
  5
113
330
1E
100
AcDbEntity
  8
255
 62
     0
100
AcDbLine
 10
87.194079
 20
-127.740567
 30
0.0
 11
87.794079
 21
-127.1405669999999
 31
0.0
  0
LINE
  5
114
330
1E
100
AcDbEntity
  8
255
 62
     0
100
AcDbLine
 10
85.212763
 20
-129.4390399999999
 30
0.0
 11
85.82990799999997
 21
-128.821896
 31
0.0
  0
LINE
  5
115
330
1E
100
AcDbEntity
  8
255
 62
     0
100
AcDbLine
 10
86.911237
 20
-127.740567
 30
0.0
 11
87.51123699999999
 21
-127.1405669999999
 31
0.0
  0
LINE
  5
116
330
1E
100
AcDbEntity
  8
255
 62
     0
100
AcDbLine
 10
84.96902199999999
 20
-129.3999389999999
 30
0.0
 11
85.639943
 21
-128.729018
 31
0.0
  0
LINE
  5
117
330
1E
100
AcDbEntity
  8
255
 62
     0
100
AcDbLine
 10
86.62839400000001
 20
-127.740567
 30
0.0
 11
87.22839399999998
 21
-127.1405669999999
 31
0.0
  0
LINE
  5
118
330
1E
100
AcDbEntity
  8
255
 62
     0
100
AcDbLine
 10
84.76389000000002
 20
-129.3222279999999
 30
0.0
 11
85.50500500000003
 21
-128.5811129999999
 31
0.0
  0
LINE
  5
119
330
1E
100
AcDbEntity
  8
255
 62
     0
100
AcDbLine
 10
86.345551
 20
-127.740567
 30
0.0
 11
86.945551
 21
-127.1405669999999
 31
0.0
  0
LINE
  5
11A
330
1E
100
AcDbEntity
  8
255
 62
     0
100
AcDbLine
 10
84.588137
 20
-129.2151389999999
 30
0.0
 11
85.42848499999998
 21
-128.3747899999999
 31
0.0
  0
LINE
  5
11B
330
1E
100
AcDbEntity
  8
255
 62
     0
100
AcDbLine
 10
86.062708
 20
-127.740567
 30
0.0
 11
86.66270799999997
 21
-127.1405669999999
 31
0.0
  0
LINE
  5
11C
330
1E
100
AcDbEntity
  8
255
 62
     0
100
AcDbLine
 10
84.43803199999997
 20
-129.0824
 30
0.0
 11
85.484486
 21
-128.035947
 31
0.0
  0
LINE
  5
11D
330
1E
100
AcDbEntity
  8
255
 62
     0
100
AcDbLine
 10
85.71737799999999
 20
-127.803054
 30
0.0
 11
86.37986600000003
 21
-127.1405669999999
 31
0.0
  0
LINE
  5
11E
330
1E
100
AcDbEntity
  8
255
 62
     0
100
AcDbLine
 10
84.312737
 20
-128.924853
 30
0.0
 11
86.097023
 21
-127.1405669999999
 31
0.0
  0
LINE
  5
11F
330
1E
100
AcDbEntity
  8
255
 62
     0
100
AcDbLine
 10
84.213842
 20
-128.7409049999999
 30
0.0
 11
85.81418000000002
 21
-127.1405669999999
 31
0.0
  0
LINE
  5
120
330
1E
100
AcDbEntity
  8
255
 62
     0
100
AcDbLine
 10
84.14627800000003
 20
-128.525627
 30
0.0
 11
85.53133800000003
 21
-127.1405669999999
 31
0.0
  0
LINE
  5
121
330
1E
100
AcDbEntity
  8
255
 62
     0
100
AcDbLine
 10
84.12224399999997
 20
-128.2668179999999
 30
0.0
 11
85.24824999999998
 21
-127.140812
 31
0.0
  0
LINE
  5
122
330
1E
100
AcDbEntity
  8
255
 62
     0
100
AcDbLine
 10
84.18186700000003
 20
-127.924352
 30
0.0
 11
84.905784
 21
-127.200436
 31
0.0
  0
LINE
  5
123
330
1E
100
AcDbEntity
  8
255
 62
     0
100
AcDbLine
 10
95.107788
 20
-131.140567
 30
0.0
 11
95.121999
 21
-131.126356
 31
0.0
  0
LINE
  5
124
330
1E
100
AcDbEntity
  8
255
 62
     0
100
AcDbLine
 10
94.82494499999999
 20
-131.140567
 30
0.0
 11
95.121999
 21
-130.843514
 31
0.0
  0
LINE
  5
125
330
1E
100
AcDbEntity
  8
255
 62
     0
100
AcDbLine
 10
94.542102
 20
-131.140567
 30
0.0
 11
95.121999
 21
-130.5606709999999
 31
0.0
  0
LINE
  5
126
330
1E
100
AcDbEntity
  8
255
 62
     0
100
AcDbLine
 10
94.25926
 20
-131.140567
 30
0.0
 11
95.121999
 21
-130.277828
 31
0.0
  0
LINE
  5
127
330
1E
100
AcDbEntity
  8
255
 62
     0
100
AcDbLine
 10
93.97641699999999
 20
-131.140567
 30
0.0
 11
95.121999
 21
-129.994985
 31
0.0
  0
LINE
  5
128
330
1E
100
AcDbEntity
  8
255
 62
     0
100
AcDbLine
 10
93.82199900000001
 20
-131.0121429999999
 30
0.0
 11
95.121999
 21
-129.712143
 31
0.0
  0
LINE
  5
129
330
1E
100
AcDbEntity
  8
255
 62
     0
100
AcDbLine
 10
93.82199900000001
 20
-130.7293
 30
0.0
 11
95.121999
 21
-129.4293
 31
0.0
  0
LINE
  5
12A
330
1E
100
AcDbEntity
  8
255
 62
     0
100
AcDbLine
 10
93.82199900000001
 20
-130.446457
 30
0.0
 11
95.121999
 21
-129.146457
 31
0.0
  0
LINE
  5
12B
330
1E
100
AcDbEntity
  8
255
 62
     0
100
AcDbLine
 10
93.82199900000001
 20
-130.1636149999999
 30
0.0
 11
95.121999
 21
-128.8636149999997
 31
0.0
  0
LINE
  5
12C
330
1E
100
AcDbEntity
  8
255
 62
     0
100
AcDbLine
 10
93.82199900000001
 20
-129.880772
 30
0.0
 11
95.121999
 21
-128.5807719999999
 31
0.0
  0
LINE
  5
12D
330
1E
100
AcDbEntity
  8
255
 62
     0
100
AcDbLine
 10
93.82199900000001
 20
-129.597929
 30
0.0
 11
95.121999
 21
-128.297929
 31
0.0
  0
LINE
  5
12E
330
1E
100
AcDbEntity
  8
255
 62
     0
100
AcDbLine
 10
93.82199900000001
 20
-129.315086
 30
0.0
 11
95.094863
 21
-128.042222
 31
0.0
  0
LINE
  5
12F
330
1E
100
AcDbEntity
  8
255
 62
     0
100
AcDbLine
 10
93.82199900000001
 20
-129.0322439999999
 30
0.0
 11
95.02528599999999
 21
-127.828956
 31
0.0
  0
LINE
  5
130
330
1E
100
AcDbEntity
  8
255
 62
     0
100
AcDbLine
 10
93.82199900000001
 20
-128.749401
 30
0.0
 11
94.92479200000001
 21
-127.646607
 31
0.0
  0
LINE
  5
131
330
1E
100
AcDbEntity
  8
255
 62
     0
100
AcDbLine
 10
93.82199900000001
 20
-128.466558
 30
0.0
 11
94.79806299999999
 21
-127.490494
 31
0.0
  0
LINE
  5
132
330
1E
100
AcDbEntity
  8
255
 62
     0
100
AcDbLine
 10
93.81319000000001
 20
-128.192525
 30
0.0
 11
94.64654000000001
 21
-127.359174
 31
0.0
  0
LINE
  5
133
330
1E
100
AcDbEntity
  8
255
 62
     0
100
AcDbLine
 10
93.732711
 20
-127.99016
 30
0.0
 11
94.46924499999999
 21
-127.253626
 31
0.0
  0
LINE
  5
134
330
1E
100
AcDbEntity
  8
255
 62
     0
100
AcDbLine
 10
93.59478199999999
 20
-127.845246
 30
0.0
 11
94.26223400000001
 21
-127.1777939999999
 31
0.0
  0
LINE
  5
135
330
1E
100
AcDbEntity
  8
255
 62
     0
100
AcDbLine
 10
93.401223
 20
-127.755963
 30
0.0
 11
94.01578499999999
 21
-127.1414009999999
 31
0.0
  0
LINE
  5
136
330
1E
100
AcDbEntity
  8
255
 62
     0
100
AcDbLine
 10
93.133776
 20
-127.740567
 30
0.0
 11
93.73377600000001
 21
-127.1405669999999
 31
0.0
  0
LINE
  5
137
330
1E
100
AcDbEntity
  8
255
 62
     0
100
AcDbLine
 10
92.85093399999999
 20
-127.740567
 30
0.0
 11
93.45093400000001
 21
-127.1405669999999
 31
0.0
  0
LINE
  5
138
330
1E
100
AcDbEntity
  8
255
 62
     0
100
AcDbLine
 10
92.56809099999999
 20
-127.740567
 30
0.0
 11
93.168091
 21
-127.1405669999999
 31
0.0
  0
LINE
  5
139
330
1E
100
AcDbEntity
  8
255
 62
     0
100
AcDbLine
 10
92.285248
 20
-127.740567
 30
0.0
 11
92.88524800000001
 21
-127.1405669999999
 31
0.0
  0
LINE
  5
13A
330
1E
100
AcDbEntity
  8
255
 62
     0
100
AcDbLine
 10
92.00240499999999
 20
-127.740567
 30
0.0
 11
92.602405
 21
-127.1405669999999
 31
0.0
  0
LINE
  5
13B
330
1E
100
AcDbEntity
  8
255
 62
     0
100
AcDbLine
 10
91.87199900000001
 20
-127.588131
 30
0.0
 11
92.319563
 21
-127.1405669999999
 31
0.0
  0
LINE
  5
13C
330
1E
100
AcDbEntity
  8
255
 62
     0
100
AcDbLine
 10
91.87199900000001
 20
-127.3052879999999
 30
0.0
 11
92.03671999999999
 21
-127.1405669999999
 31
0.0
  0
LINE
  5
13D
330
1E
100
AcDbEntity
  8
255
 62
     0
100
AcDbLine
 10
101.047485
 20
-131.140567
 30
0.0
 11
101.121999
 21
-131.066053
 31
0.0
  0
LINE
  5
13E
330
1E
100
AcDbEntity
  8
255
 62
     0
100
AcDbLine
 10
100.764642
 20
-131.140567
 30
0.0
 11
101.121999
 21
-130.7832099999999
 31
0.0
  0
LINE
  5
13F
330
1E
100
AcDbEntity
  8
255
 62
     0
100
AcDbLine
 10
100.481799
 20
-131.140567
 30
0.0
 11
101.1159849999999
 21
-130.5063819999999
 31
0.0
  0
LINE
  5
140
330
1E
100
AcDbEntity
  8
255
 62
     0
100
AcDbLine
 10
100.1989569999997
 20
-131.140567
 30
0.0
 11
101.0742829999999
 21
-130.265241
 31
0.0
  0
LINE
  5
141
330
1E
100
AcDbEntity
  8
255
 62
     0
100
AcDbLine
 10
99.91611400000001
 20
-131.140567
 30
0.0
 11
101.002593
 21
-130.0540879999997
 31
0.0
  0
LINE
  5
142
330
1E
100
AcDbEntity
  8
255
 62
     0
100
AcDbLine
 10
99.82199900000001
 20
-130.9518399999997
 30
0.0
 11
100.9070279999999
 21
-129.86681
 31
0.0
  0
LINE
  5
143
330
1E
100
AcDbEntity
  8
255
 62
     0
100
AcDbLine
 10
99.82199900000001
 20
-130.6689969999997
 30
0.0
 11
100.7907059999999
 21
-129.7002889999999
 31
0.0
  0
LINE
  5
144
330
1E
100
AcDbEntity
  8
255
 62
     0
100
AcDbLine
 10
99.82199900000001
 20
-130.3861539999997
 30
0.0
 11
100.655103
 21
-129.5530489999999
 31
0.0
  0
LINE
  5
145
330
1E
100
AcDbEntity
  8
255
 62
     0
100
AcDbLine
 10
99.805644
 20
-130.119666
 30
0.0
 11
100.500541
 21
-129.4247689999999
 31
0.0
  0
LINE
  5
146
330
1E
100
AcDbEntity
  8
255
 62
     0
100
AcDbLine
 10
99.75266600000001
 20
-129.889801
 30
0.0
 11
100.3262819999999
 21
-129.316186
 31
0.0
  0
LINE
  5
147
330
1E
100
AcDbEntity
  8
255
 62
     0
100
AcDbLine
 10
99.67229000000001
 20
-129.687335
 30
0.0
 11
100.130306
 21
-129.229318
 31
0.0
  0
LINE
  5
148
330
1E
100
AcDbEntity
  8
255
 62
     0
100
AcDbLine
 10
100.5105719999999
 20
-128.849052
 30
0.0
 11
100.830484
 21
-128.5291409999999
 31
0.0
  0
LINE
  5
149
330
1E
100
AcDbEntity
  8
255
 62
     0
100
AcDbLine
 10
99.56935000000001
 20
-129.5074319999999
 30
0.0
 11
99.90858299999999
 21
-129.1681979999999
 31
0.0
  0
LINE
  5
14A
330
1E
100
AcDbEntity
  8
255
 62
     0
100
AcDbLine
 10
99.97942100000001
 20
-129.0973609999997
 30
0.0
 11
101.078793
 21
-127.9979889999999
 31
0.0
  0
LINE
  5
14B
330
1E
100
AcDbEntity
  8
255
 62
     0
100
AcDbLine
 10
99.35337199999999
 20
-129.4405669999999
 30
0.0
 11
99.65305100000001
 21
-129.1408879999997
 31
0.0
  0
LINE
  5
14C
330
1E
100
AcDbEntity
  8
255
 62
     0
100
AcDbLine
 10
99.65370700000001
 20
-129.1402319999999
 30
0.0
 11
101.121663
 21
-127.6722759999999
 31
0.0
  0
LINE
  5
14D
330
1E
100
AcDbEntity
  8
255
 62
     0
100
AcDbLine
 10
97.37053000000001
 20
-131.140567
 30
0.0
 11
97.42199900000001
 21
-131.089098
 31
0.0
  0
LINE
  5
14E
330
1E
100
AcDbEntity
  8
255
 62
     0
100
AcDbLine
 10
99.07053000000001
 20
-129.4405669999999
 30
0.0
 11
101.121999
 21
-127.389098
 31
0.0
  0
LINE
  5
14F
330
1E
100
AcDbEntity
  8
255
 62
     0
100
AcDbLine
 10
97.087687
 20
-131.140567
 30
0.0
 11
97.42199900000001
 21
-130.806255
 31
0.0
  0
LINE
  5
150
330
1E
100
AcDbEntity
  8
255
 62
     0
100
AcDbLine
 10
98.78768700000001
 20
-129.4405669999999
 30
0.0
 11
99.387687
 21
-128.8405669999999
 31
0.0
  0
LINE
  5
151
330
1E
100
AcDbEntity
  8
255
 62
     0
100
AcDbLine
 10
99.703613
 20
-128.524641
 30
0.0
 11
101.087687
 21
-127.1405669999999
 31
0.0
  0
LINE
  5
152
330
1E
100
AcDbEntity
  8
255
 62
     0
100
AcDbLine
 10
96.80484399999999
 20
-131.140567
 30
0.0
 11
97.42199900000001
 21
-130.5234129999997
 31
0.0
  0
LINE
  5
153
330
1E
100
AcDbEntity
  8
255
 62
     0
100
AcDbLine
 10
98.50484399999999
 20
-129.4405669999999
 30
0.0
 11
99.10484400000001
 21
-128.8405669999999
 31
0.0
  0
LINE
  5
154
330
1E
100
AcDbEntity
  8
255
 62
     0
100
AcDbLine
 10
99.80918299999999
 20
-128.136228
 30
0.0
 11
100.8048439999999
 21
-127.1405669999999
 31
0.0
  0
LINE
  5
155
330
1E
100
AcDbEntity
  8
255
 62
     0
100
AcDbLine
 10
96.52200100000001
 20
-131.140567
 30
0.0
 11
97.42199900000001
 21
-130.2405699999999
 31
0.0
  0
LINE
  5
156
330
1E
100
AcDbEntity
  8
255
 62
     0
100
AcDbLine
 10
98.22200100000001
 20
-129.4405669999999
 30
0.0
 11
98.822001
 21
-128.8405669999999
 31
0.0
  0
LINE
  5
157
330
1E
100
AcDbEntity
  8
255
 62
     0
100
AcDbLine
 10
99.82199900000001
 20
-127.8405699999999
 30
0.0
 11
100.5220009999999
 21
-127.1405669999999
 31
0.0
  0
LINE
  5
158
330
1E
100
AcDbEntity
  8
255
 62
     0
100
AcDbLine
 10
96.239159
 20
-131.140567
 30
0.0
 11
97.42199900000001
 21
-129.957727
 31
0.0
  0
LINE
  5
159
330
1E
100
AcDbEntity
  8
255
 62
     0
100
AcDbLine
 10
97.93915900000001
 20
-129.4405669999999
 30
0.0
 11
98.539159
 21
-128.8405669999999
 31
0.0
  0
LINE
  5
15A
330
1E
100
AcDbEntity
  8
255
 62
     0
100
AcDbLine
 10
99.82199900000001
 20
-127.557727
 30
0.0
 11
100.2391589999999
 21
-127.1405669999999
 31
0.0
  0
LINE
  5
15B
330
1E
100
AcDbEntity
  8
255
 62
     0
100
AcDbLine
 10
96.121999
 20
-130.974884
 30
0.0
 11
97.42199900000001
 21
-129.674884
 31
0.0
  0
LINE
  5
15C
330
1E
100
AcDbEntity
  8
255
 62
     0
100
AcDbLine
 10
97.656316
 20
-129.4405669999999
 30
0.0
 11
98.25631600000001
 21
-128.8405669999999
 31
0.0
  0
LINE
  5
15D
330
1E
100
AcDbEntity
  8
255
 62
     0
100
AcDbLine
 10
99.82199900000001
 20
-127.274884
 30
0.0
 11
99.95631600000001
 21
-127.1405669999999
 31
0.0
  0
LINE
  5
15E
330
1E
100
AcDbEntity
  8
255
 62
     0
100
AcDbLine
 10
96.121999
 20
-130.6920419999999
 30
0.0
 11
97.973473
 21
-128.8405669999999
 31
0.0
  0
LINE
  5
15F
330
1E
100
AcDbEntity
  8
255
 62
     0
100
AcDbLine
 10
96.121999
 20
-130.409199
 30
0.0
 11
97.69063100000003
 21
-128.8405669999999
 31
0.0
  0
LINE
  5
160
330
1E
100
AcDbEntity
  8
255
 62
     0
100
AcDbLine
 10
96.121999
 20
-130.126356
 30
0.0
 11
97.42199900000001
 21
-128.826356
 31
0.0
  0
LINE
  5
161
330
1E
100
AcDbEntity
  8
255
 62
     0
100
AcDbLine
 10
96.121999
 20
-129.843514
 30
0.0
 11
97.42199900000001
 21
-128.5435139999999
 31
0.0
  0
LINE
  5
162
330
1E
100
AcDbEntity
  8
255
 62
     0
100
AcDbLine
 10
96.121999
 20
-129.5606709999999
 30
0.0
 11
97.42199900000001
 21
-128.260671
 31
0.0
  0
LINE
  5
163
330
1E
100
AcDbEntity
  8
255
 62
     0
100
AcDbLine
 10
96.121999
 20
-129.277828
 30
0.0
 11
97.42199900000001
 21
-127.977828
 31
0.0
  0
LINE
  5
164
330
1E
100
AcDbEntity
  8
255
 62
     0
100
AcDbLine
 10
96.121999
 20
-128.994985
 30
0.0
 11
97.42199900000001
 21
-127.694985
 31
0.0
  0
LINE
  5
165
330
1E
100
AcDbEntity
  8
255
 62
     0
100
AcDbLine
 10
96.121999
 20
-128.712143
 30
0.0
 11
97.42199900000001
 21
-127.412143
 31
0.0
  0
LINE
  5
166
330
1E
100
AcDbEntity
  8
255
 62
     0
100
AcDbLine
 10
96.121999
 20
-128.4293
 30
0.0
 11
97.410732
 21
-127.1405669999999
 31
0.0
  0
LINE
  5
167
330
1E
100
AcDbEntity
  8
255
 62
     0
100
AcDbLine
 10
96.121999
 20
-128.146457
 30
0.0
 11
97.12788899999999
 21
-127.1405669999999
 31
0.0
  0
LINE
  5
168
330
1E
100
AcDbEntity
  8
255
 62
     0
100
AcDbLine
 10
96.121999
 20
-127.863615
 30
0.0
 11
96.845046
 21
-127.1405669999999
 31
0.0
  0
LINE
  5
169
330
1E
100
AcDbEntity
  8
255
 62
     0
100
AcDbLine
 10
96.121999
 20
-127.5807719999999
 30
0.0
 11
96.56220300000001
 21
-127.1405669999999
 31
0.0
  0
LINE
  5
16A
330
1E
100
AcDbEntity
  8
255
 62
     0
100
AcDbLine
 10
96.121999
 20
-127.297929
 30
0.0
 11
96.27936099999999
 21
-127.1405669999999
 31
0.0
  0
LINE
  5
16B
330
1E
100
AcDbEntity
  8
255
 62
     0
100
AcDbLine
 10
62.5
 20
-101.0
 30
0.0
 11
197.5
 21
-101.0
 31
0.0
  0
LINE
  5
16C
330
1E
100
AcDbEntity
  8
255
 62
     0
100
AcDbLine
 10
62.5
 20
-101.0
 30
0.0
 11
62.5
 21
-136.0
 31
0.0
  0
LINE
  5
16D
330
1E
100
AcDbEntity
  8
255
 62
     0
100
AcDbLine
 10
82.5
 20
-101.0
 30
0.0
 11
82.5
 21
-121.0
 31
0.0
  0
LINE
  5
16E
330
1E
100
AcDbEntity
  8
255
 62
     0
100
AcDbLine
 10
62.67425600000001
 20
-111.0
 30
0.0
 11
197.5
 21
-111.0
 31
0.0
  0
LINE
  5
16F
330
1E
100
AcDbEntity
  8
255
 62
     0
100
AcDbLine
 10
62.390168
 20
-121.0
 30
0.0
 11
197.5
 21
-121.0
 31
0.0
  0
LINE
  5
170
330
1E
100
AcDbEntity
  8
255
 62
     0
100
AcDbLine
 10
162.5
 20
-101.0
 30
0.0
 11
162.5
 21
-136.0
 31
0.0
  0
LINE
  5
171
330
1E
100
AcDbEntity
  8
255
 62
     0
100
AcDbLine
 10
177.5
 20
-101.0
 30
0.0
 11
177.5
 21
-136.0
 31
0.0
  0
TEXT
  5
172
330
1E
100
AcDbEntity
  8
255
 62
     0
100
AcDbText
 10
163.0
 20
-109.15
 30
0.0
 40
6.299999999999998
  1
尺度
 41
1.137566
100
AcDbText
  0
TEXT
  5
173
330
1E
100
AcDbEntity
  8
255
 62
     0
100
AcDbText
 10
163.0
 20
-119.15
 30
0.0
 40
6.299999999999998
  1
単位
 41
1.137566
100
AcDbText
  0
TEXT
  5
174
330
1E
100
AcDbEntity
  8
255
 62
     0
100
AcDbText
 10
163.0
 20
-131.65
 30
0.0
 40
6.299999999999998
  1
作成
 41
1.137566
100
AcDbText
  0
TEXT
  5
175
330
1E
100
AcDbEntity
  8
255
 62
     0
100
AcDbText
 10
65.65000000000001
 20
-119.15
 30
0.0
 40
6.299999999999998
  1
品名
 41
1.097884
100
AcDbText
  0
TEXT
  5
176
330
1E
100
AcDbEntity
  8
255
 62
     0
100
AcDbText
 10
65.65000000000001
 20
-109.15
 30
0.0
 40
6.299999999999998
  1
形名
 41
1.097884
100
AcDbText
  0
LINE
  5
177
330
1E
100
AcDbEntity
  8
255
 62
     0
100
AcDbLine
 10
197.5
 20
-136.0
 30
0.0
 11
-197.5
 21
-136.0
 31
0.0
  0
LINE
  5
178
330
1E
100
AcDbEntity
  8
255
 62
     0
100
AcDbLine
 10
-74.5
 20
-136.0
 30
0.0
 11
197.5
 21
-136.0
 31
0.0
  0
LINE
  5
179
330
1E
100
AcDbEntity
  8
255
 62
     0
100
AcDbLine
 10
197.5
 20
-136.0
 30
0.0
 11
197.5
 21
-98.0
 31
0.0
  0
LINE
  5
194
330
1E
100
AcDbEntity
  8
002
 62
     0
100
AcDbLine
 10
-109.425462
 20
21.40603899999999
 30
0.0
 11
-109.425462
 21
44.67568299999999
 31
0.0
  0
LINE
  5
195
330
1E
100
AcDbEntity
  8
002
 62
     0
100
AcDbLine
 10
10.57453799999999
 20
21.40603899999999
 30
0.0
 11
10.57453799999999
 21
44.67568299999999
 31
0.0
  0
LINE
  5
196
330
1E
100
AcDbEntity
  8
002
 62
     0
100
AcDbLine
 10
-109.425462
 20
43.675683
 30
0.0
 11
10.57453799999999
 21
43.675683
 31
0.0
  0
INSERT
  5
197
330
1E
100
AcDbEntity
  8
002
 62
     0
100
AcDbBlockReference
  2
ARROW
 10
-109.425462
 20
43.675683
 30
0.0
  0
INSERT
  5
198
330
1E
100
AcDbEntity
  8
002
 62
     0
100
AcDbBlockReference
  2
ARROW
 10
10.57453799999999
 20
43.675683
 30
0.0
 50
180.0
  0
TEXT
  5
199
330
1E
100
AcDbEntity
  8
002
 62
     0
100
AcDbText
 10
-53.550462
 20
44.67568299999999
 30
0.0
 40
3.2
  1
120
 41
1.03125
100
AcDbText
  0
LINE
  5
19A
330
1E
100
AcDbEntity
  8
002
 62
     0
100
AcDbLine
 10
6.574538
 20
-64.59396099999999
 30
0.0
 11
34.748326
 21
-64.59396099999999
 31
0.0
  0
LINE
  5
19B
330
1E
100
AcDbEntity
  8
002
 62
     0
100
AcDbLine
 10
6.574538
 20
25.406039
 30
0.0
 11
34.748326
 21
25.406039
 31
0.0
  0
LINE
  5
19C
330
1E
100
AcDbEntity
  8
002
 62
     0
100
AcDbLine
 10
33.74832599999999
 20
-64.59396099999999
 30
0.0
 11
33.74832599999999
 21
25.406039
 31
0.0
  0
INSERT
  5
19D
330
1E
100
AcDbEntity
  8
002
 62
     0
100
AcDbBlockReference
  2
ARROW
 10
33.74832599999999
 20
-64.59396099999999
 30
0.0
 50
90.0
  0
INSERT
  5
19E
330
1E
100
AcDbEntity
  8
002
 62
     0
100
AcDbBlockReference
  2
ARROW
 10
33.74832599999999
 20
25.406039
 30
0.0
 50
270.0
  0
TEXT
  5
19F
330
1E
100
AcDbEntity
  8
002
 62
     0
100
AcDbText
 10
32.74832599999999
 20
-19.30030999999998
 30
0.0
 40
3.2
  1
90
 50
90.00000300000001
 41
0.9375
100
AcDbText
  0
LINE
  5
1A0
330
1E
100
AcDbEntity
  8
001
 62
     0
100
AcDbLine
 10
100.4296459999999
 20
-65.59396099999999
 30
0.0
 11
100.4296459999999
 21
-76.10178499999998
 31
0.0
  0
LINE
  5
1A1
330
1E
100
AcDbEntity
  8
001
 62
     0
100
AcDbLine
 10
101.4296459999999
 20
-65.59396099999999
 30
0.0
 11
101.4296459999999
 21
-76.10178499999998
 31
0.0
  0
LINE
  5
1A2
330
1E
100
AcDbEntity
  8
001
 62
     0
100
AcDbLine
 10
100.4296459999999
 20
-75.10178499999998
 30
0.0
 11
101.4296459999999
 21
-75.10178499999998
 31
0.0
  0
INSERT
  5
1A3
330
1E
100
AcDbEntity
  8
001
 62
     0
100
AcDbBlockReference
  2
ARROW
 10
100.4296459999999
 20
-75.10178499999998
 30
0.0
 50
180.0
  0
INSERT
  5
1A4
330
1E
100
AcDbEntity
  8
001
 62
     0
100
AcDbBlockReference
  2
ARROW
 10
101.4296459999999
 20
-75.10178499999998
 30
0.0
  0
TEXT
  5
1A5
330
1E
100
AcDbEntity
  8
001
 62
     0
100
AcDbText
 10
104.4296459999999
 20
-74.10178499999998
 30
0.0
 40
3.2
  1
1
 41
1.289062
100
AcDbText
  0
LINE
  5
1A6
330
1E
100
AcDbEntity
  8
001
 62
     0
100
AcDbLine
 10
100.4296459999999
 20
-75.10178499999998
 30
0.0
 11
97.429646
 21
-75.10178499999998
 31
0.0
  0
LINE
  5
1A7
330
1E
100
AcDbEntity
  8
001
 62
     0
100
AcDbLine
 10
101.4296459999999
 20
-75.10178499999998
 30
0.0
 11
107.1796459999999
 21
-75.10178499999998
 31
0.0
  0
LINE
  5
1A8
330
1E
100
AcDbEntity
  8
002
 62
     0
100
AcDbLine
 10
6.682546
 20
22.248961
 30
0.0
 11
9.258513
 21
23.786619
 31
0.0
  0
INSERT
  5
1A9
330
1E
100
AcDbEntity
  8
002
 62
     0
100
AcDbBlockReference
  2
ARROW
 10
9.258513
 20
23.786619
 30
0.0
 50
30.834018
  0
TEXT
  5
1AA
330
1E
100
AcDbEntity
  8
002
 62
     0
100
AcDbText
 10
20.210458
 20
31.488715
 30
0.0
 40
3.2
  1
4-R5
 50
30.834018
 41
0.859375
100
AcDbText
  0
LINE
  5
1AB
330
1E
100
AcDbEntity
  8
002
 62
     0
100
AcDbLine
 10
9.258513
 20
23.786619
 30
0.0
 11
30.168224
 21
36.26814
 31
0.0
  0
ENDSEC
  0
SECTION
  2
OBJECTS
  0
DICTIONARY
  5
C
330
0
100
AcDbDictionary
281
     1
  3
ACAD_GROUP
350
D
  3
ACAD_LAYOUT
350
19
  3
ACAD_MLINESTYLE
350
16
  3
ACAD_PLOTSETTINGS
350
18
  3
ACAD_PLOTSTYLENAME
350
E
  3
AcDbVariableDictionary
350
17D
  0
DICTIONARY
  5
D
102
{ACAD_REACTORS
330
C
102
}
330
C
100
AcDbDictionary
281
     1
  0
DICTIONARY
  5
19
102
{ACAD_REACTORS
330
C
102
}
330
C
100
AcDbDictionary
281
     1
  3
Model
350
21
  3
ﾚｲｱｳﾄ1
350
1D
  0
DICTIONARY
  5
16
102
{ACAD_REACTORS
330
C
102
}
330
C
100
AcDbDictionary
281
     1
  3
Standard
350
17
  0
DICTIONARY
  5
18
102
{ACAD_REACTORS
330
C
102
}
330
C
100
AcDbDictionary
281
     1
  0
ACDBDICTIONARYWDFLT
  5
E
102
{ACAD_REACTORS
330
C
102
}
330
C
100
AcDbDictionary
281
     1
  3
Normal
350
F
100
AcDbDictionaryWithDefault
340
F
  0
DICTIONARY
  5
17D
102
{ACAD_REACTORS
330
C
102
}
330
C
100
AcDbDictionary
281
     1
  3
DIMASSOC
350
17E
  0
LAYOUT
  5
21
102
{ACAD_REACTORS
330
19
102
}
330
19
100
AcDbPlotSettings
  1

  2
RICOH IPSiO NX860e RPDL
  4
A4
  6

 40
5.873749732971191
 41
4.815398216247558
 42
7.56707763671875
 43
5.873748779296875
 44
209.9733276367186
 45
296.9683227539062
 46
0.0
 47
0.0
 48
-197.5
 49
-136.0
140
197.5
141
136.0
142
1.0
143
35.15347329634034
 70
 11952
 72
     0
 73
     1
 74
     4
  7

 75
     0
147
0.0284466912151211
148
5016.5
149
3454.399999999999
100
AcDbLayout
  1
Model
 70
     1
 71
     0
 10
0.0
 20
0.0
 11
12.0
 21
9.0
 12
0.0
 22
0.0
 32
0.0
 14
0.0
 24
0.0
 34
0.0
 15
0.0
 25
0.0
 35
0.0
146
0.0
 13
0.0
 23
0.0
 33
0.0
 16
1.0
 26
0.0
 36
0.0
 17
0.0
 27
1.0
 37
0.0
 76
     0
330
1E
  0
LAYOUT
  5
1D
102
{ACAD_REACTORS
330
19
102
}
330
19
100
AcDbPlotSettings
  1

  2
RICOH IPSiO NX860e RPDL
  4

  6

 40
0.0
 41
0.0
 42
0.0
 43
0.0
 44
0.0
 45
0.0
 46
0.0
 47
0.0
 48
0.0
 49
0.0
140
0.0
141
0.0
142
1.0
143
1.0
 70
   688
 72
     0
 73
     0
 74
     5
  7

 75
    16
147
1.0
148
0.0
149
0.0
100
AcDbLayout
  1
ﾚｲｱｳﾄ1
 70
     1
 71
     1
 10
0.0
 20
0.0
 11
12.0
 21
9.0
 12
0.0
 22
0.0
 32
0.0
 14
1.000000000000000E+20
 24
1.000000000000000E+20
 34
1.000000000000000E+20
 15
-1.000000000000000E+20
 25
-1.000000000000000E+20
 35
-1.000000000000000E+20
146
0.0
 13
0.0
 23
0.0
 33
0.0
 16
1.0
 26
0.0
 36
0.0
 17
0.0
 27
1.0
 37
0.0
 76
     0
330
1A
  0
MLINESTYLE
  5
17
102
{ACAD_REACTORS
330
16
102
}
330
16
100
AcDbMlineStyle
  2
STANDARD
 70
     0
  3

 62
   256
 51
90.0
 52
90.0
 71
     2
 49
0.5
 62
   256
  6
BYLAYER
 49
-0.5
 62
   256
  6
BYLAYER
  0
ACDBPLACEHOLDER
  5
F
102
{ACAD_REACTORS
330
E
102
}
330
E
  0
DICTIONARYVAR
  5
17E
102
{ACAD_REACTORS
330
17D
102
}
330
17D
100
DictionaryVariables
280
     0
  1
1
  0
ENDSEC
  0
EOF
